Cifra Club

Livin' On A Prayer

Bon Jovi

Cifra: Principal (violão e guitarra)
Selo Cifra Club: esta cifra foi revisada para atender aos critérios oficiais da nossa Equipe de Qualidade.
tom: Em
[Intro]

[Tab - Riff Principal]

  P.M  .   . . .
E|------------------------------------------|
B|------------------------------------------|
G|------------------------------------------|
D|------------------------------------------| (12x)
A|---7---5-------5--------------------------|
E|-0---0---0-0-7----------------------------|

(Once upon a time not so long ago)

[Primeira Parte]

Tommy used to work on the docks

Union's been on strike
                             C5   D5
He's down on his luck, it's tough
   (Riff Principal)
So tough

[Tab - Riff Principal]

  P.M  .   . . .
E|------------------------------------------|
B|------------------------------------------|
G|------------------------------------------|
D|------------------------------------------| (2x)
A|---7---5-------5--------------------------|
E|-0---0---0-0-7----------------------------|

Gina works the diner all day

Workin' for her man
                             C5  D5
She brings home her pay for love
    (Riff Principal)
For love

[Tab - Riff Principal]

  P.M  .   . . .
E|------------------------------------------|
B|------------------------------------------|
G|------------------------------------------|
D|------------------------------------------| (2x)
A|---7---5-------5--------------------------|
E|-0---0---0-0-7----------------------------|

[Ponte 1]

                        C5  D5
She says: "We've gotta hold on
               E5
To what we've got
    C5             D5
It doesn't make a difference
                  E5
If we make it or not
       C5      D5
We've got each other
              E5      C5
And that's a lot for love
       D5
We'll give it a shot"

[Refrão 1]

E5  C5         D5
O___oh, we're halfway there
  G5  C5   D5
Who___ah, livin' on a prayer
 E5      C5
Take my hand
       D5
We'll make it, I swear
  G5  C5   D5
Who___ah, livin' on a prayer

(Riff Principal)

[Tab - Riff Principal]

  P.M  .   . . .
E|------------------------------------------|
B|------------------------------------------|
G|------------------------------------------|
D|------------------------------------------| (2x)
A|---7---5-------5--------------------------|
E|-0---0---0-0-7----------------------------|

[Segunda Parte]

(Riff Principal)

[Tab - Riff Principal]

  P.M  .   . . .
E|------------------------------------------|
B|------------------------------------------|
G|------------------------------------------|
D|------------------------------------------| (16x)
A|---7---5-------5--------------------------|
E|-0---0---0-0-7----------------------------|

Tommy's got his six-string in hock

Now, he's holdin' in, when he used
                         (Riff 1)
To make it talk so tough

It's tough

[Tab - Riff 1]

                                   H.N \
E|--------------20b22~---15-----------------|
B|--------------------------17~----12-------|
G|-14b16r--14~~--------------------12-------|
D|------------------------------------------|
A|------------------------------------------|
E|------------------------------------------|

Gina dreams of runnin' away

When she cries in the night

Tommy whispers: 

"Baby, it's okay, someday"

[Ponte 2]

              C5  D5
We've got to hold on
               E5
To what we've got
    C5             D5
It doesn't make a difference
                  E5
If we make it or not
       C5      D5
We've got each other
              E5      C5
And that's a lot for love
       D5
We'll give it a shot

[Refrão 2]

E5  C5         D5
O___oh, we're half way there
  G5  C5   D5
Who___ah, living on a prayer
 E5      C5
Take my hand
       D5
We'll make it, I swear
  G5  C5   D5
Who___ah, livin' on a prayer
 C5
Livin' on a prayer

[Solo] E5  C5  D5
       G5  C5  D5
       E5  C5  D5
       G5  C5  E5

Parte 1 de 5
E|------------------------------------------|
B|------------------------------------------|
G|------------------------------------------|
D|-------------5--7--7b8r7------------------|
A|-7--5--7~-----------------5--5~~----------|
E|------------------------------------------|

Parte 2 de 5
E|-----12-14-15-----------------------------|
B|---x-----------15-12-13--15---------------|
G|-x----------------------------------------|
D|------------------------------------------|
A|------------------------------------------|
E|------------------------------------------|

E|------------------------------------------|
B|-15b17-15b17r15--15~\---------------------|
G|------------------------------------------|
D|------------------------------------------|
A|------------------------------------------|
E|------------------------------------------|

Parte 3 de 5
E|------------------------------------------|
B|-x-x-12--x-x-13--x-x-12-------------------|
G|-x-x-12--x-x-14--x-x-12-------------------|
D|------------------------------------------|
A|------------------------------------------|
E|------------------------------------------|

E|------------------------------------------|
B|-x-x--------------------------------------|
G|-x-x-11b12r11-----------------------------|
D|--------------12--------------------------|
A|-----------------12-----------------------|
E|------------------------------------------|

Parte 4 de 5
E|-----12-14-15-----------------------------|
B|---x-----------15-12-13-------------------|
G|-x----------------------------------------|
D|------------------------------------------|
A|------------------------------------------|
E|------------------------------------------|

E|------------------------------------------|
B|-12-----15b17-15b17~~---------------------|
G|----12------------------------------------|
D|------------------------------------------|
A|------------------------------------------|
E|------------------------------------------|

Parte 5 de 5
E|-------------------14h15h17-17b19~--------|
B|----------13h15h17------------------------|
G|-12h14h16---------------------------------|
D|------------------------------------------|
A|------------------------------------------|
E|------------------------------------------|

[Ponte 3]

              C5  D5
We've got to hold on
          E5
Ready or not
     C5
You live for the fight
            D5
When that's all that you've got

[Refrão 3]

G5  Eb5        F5
O___oh, we're halfway there
  Bb5  Eb5  F5
Who____ah, livin' on a prayer
 G5      Eb5
Take my hand
       F5
We'll make it, I swear
  Bb5  Eb5  F5
Who____ah, livin' on a prayer

G5  Eb5        F5
O___oh, we're halfway there
  Bb5  Eb5  F5
Who____ah, livin' on a prayer
 G5      Eb5
Take my hand
           F5
And we'll make it, I swear
  Bb5  Eb5  F5
Who____ah, livin' on a prayer

G5  Eb5        F5
O___oh, we're halfway there
  Bb5  Eb5  F5
Who____ah, livin' on a prayer
 G5      Eb5
Take my hand
           F5
And we'll make it, I swear
  Bb5  Eb5  F5
Who____ah, livin' on a prayer
Outros vídeos desta música
    1.162.826 exibições
    • Simplificar cifra
      • ½ Tom
      • Am
      • Bbm
      • Bm
      • Cm
      • C#m
      • Dm
      • Ebm
      • Em
      • Fm
      • F#m
      • Gm
      • G#m
    • Adicionar à lista

    Afinação da cifra

    Afinador online

      0 comentários

      Ver todos os comentários

      Entre para o Cifra Club PRO

      Tenha acesso a benefícios exclusivos no App e no Site

      • Chega de anúncios

      • Badges exclusivas

      • Mais recursos no app do Afinador

      • Atendimento Prioritário

      • Aumente seu limite de lista

      • Ajude a produzir mais conteúdo

      Capítulos
      • Tocando a música
      • Dicas iniciais / Equipamentos
      • Dicas Introdução
      • Tocando Introdução
      • Ensinando Introdução (Riff Principal)
      • Acordes da Primeira Parte
      • Tocando Primeira Parte
      • Ensinando Primeira Parte
      • Dicas e Acordes Primeira Ponte
      • Tocando Ponte
      • Ensinando Ponte
      • Acordes Primeiro Refrão
      • Tocando Refrão
      • Ensinando Refrão
      • Dicas Segunda Parte / Ponte / Refrão
      • Tocando Segunda Parte ao Refrão
      • Ensinando Segunda Parte (Riff 1)
      • Ensinando Segundo Refrão
      • Dicas Solo
      • Tocando Solo
      • Ensinando Solo
      • Dicas e acordes finais
      • Tocando Terceira Ponte - Final
      • Encerramento
      • Ficha técnica / Erros de Gravação

      Cifra Club Pro

      Aproveite o Cifra Club com benefícios exclusivos e sem anúncios
      Cifra Club Pro
      Aproveite o Cifra Club com benefícios exclusivos e sem anúncios
      OK