Enviar cifraEntrar

Blaze of Glory

Bon Jovi

Cifra: Principal
exibições 206.462
Tom: C
(pre-intro)


-10-8~-------------------------------
--------10/8-------------------------
-------------10-7~-------------------
-------------------10-7~-------------
------------------------8-5~---------
-------------------------------------

(intro)


Dm
--------------------8--8/10---------------------------------------
--8/10--10-10---10-----------10-----6/8--8-8---8--5--5/6/5--3-----
------------------------------------------------------------------
------------------------------------------------------------------
------------------------------------------------------------------
------------------------------------------------------------------


             Dm
-------------------------------------------------------------------------------------
-----------------------5/7--------------------------5/7--------------------------5/7-
-----------------------5/7--------------------------5/7--------------------------5/7-
------0---0-3p0------0-5/7------0h3-0---0-3p0-----0-5/7------0h3-0---0-3p0-----0-5/7-
--0h3-----------3p0---------0h3---------------3p0--------0h3---------------3p0-------
-------------------------------------------------------------------------------------


-------------
----------3--
----------2--
-----0h3--0--
-0h3---------
-------------


   Dm
I wake up in the morning
        C9
And I raise my weary head
           G
I've got an old coat for a pillow
        Dm
And the earth was last night's bed
  F
I don't know where I'm going
     C9
Only God knows where I've been
      G
I'm a devil on the run
A six gun lover
   Dm
A candle in the wind

          Dm
When you've brought into this world
       C9
They say you're born in sin
         G
Well at least they gave me something
                 Dm
I didn't have to steal or have to win
          F
Well they tell me that I'm wanted
     C9
Yeah, I'm a wanted man
       G
I'm a colt in your stable
I'm what Cain was to Abel
       Dm
Mister catch me if you can

(refrão)
          G                  D
I'm going down in a blaze of glory
          G              D
Take me now but know the truth
          G                  D
I'm going out in a blaze of glory
       C9
Lord I never drew first
But I drew first blood
    G
I'm no one's sone
Call me young gun

    Dm
You ask about my conscience
      C9
And I offer you my soul
                G
You ask if I'll grow to be a wise man
       Dm
Well I ask if I'll grow old
   F
You ask me if I've known love
                       C9
And what it's like to sing songs in the rain
          G
Well, I've seen love come
And I've seen it shot down
    Dm
I've seen it die in vain

(refrão)
          G                  D
Shot down in a blaze of glory
Take me now but know the truth
          G                  D
I'm going out in a blaze of glory
       C9
Lord I never drew first
But I drew first blood
    G
I'm no one's sone
Call me young gun

    Dm
Each night I go to bed
           C9
I pray the Lord my soul to keep
           G
No I ain't looking for forgiveness
      Dm
But be[dm]fore I'm six foot deep
       F
Lord, I got to ask a favor
      C9
And I hope you'll understand
            G
'Cause I've lived life to the fullest
        Dm
Let this boy die like a man
G
 Staring down a bullet
        Dm
Let me make my final stand

(refrão)
          G                  D
Shot down in a blaze of glory
Take me now but know the truth
          G                  D
I'm going out in a blaze of glory
       C9
Lord I never drew first
But I drew first blood
    G
I'm no one's sone
Call me young gun
  • 1
  • 2
  • 3
  • 4
  • 5
  • 6
  • 7
  • 8
  • 9
  • 10
  • 11
  • 12
    Acordes para:
      Composição: Jon Bon JoviColaboração e revisão:
      • Baregonta

      0 comentários

        mostrar mais comentários

        Conseguiu tocar?

        19tocaram0ainda não

        Grave um vídeo tocando Blaze of Glory e mande pra gente!

        00:00 / 00:00
        outros vídeos desta música
        repetirqualidadeautomática
        • automática
        Outro vídeos desta música
          00:00 / 00:00
          automática
          • automática
          Acordes para:violão e guitarra
          dificuldadeexibiçõescontribuições
          3 versões de Guitar Proformatodownloadscontribuição
          1 versão de Partiturasformatodownloadscontribuição
          fecharplay/pause subir/descer velocidade
            acordes
            fechar
            OK
            Feedback