Cifra Club

Wanted Dead Or Alive

Bon Jovi

Cifra: Principal (violão e guitarra)
tom: G
[Intro] 


  H.N     H.N  H.N     D9/A
E|----------------------0--------|
B|----------------------3~-------|
G|---------12-----------2~-------|
D|--7-----------12------0--------|
A|----------------------0--------|
E|-------------------------------|

E|---------13----------12----------10---------8----------5----------3------3/----1~---|
B|-------------------------------------------------------------------------0-----0----|
G|------14----14----12----12----10----10----9----9-----5----5-----4----4---4/----2~---| (2x)
D|----0-----------0-----------0-----------0----------0---------0-----------0-----0----|
A|------------------------------------------------------------------------------------|
E|------------------------------------------------------------------------------------|
    D9/A
E|----------------------0-----------------------------0-------------------------------|
B|------------------------3---3-------------------------3---3-------------------------|
G|------------2-2---0-------2---2----------2-2---0--------2---2----------2-2---0------|
D|-------0----0-3b4-0-------------0----0---0-3b4-0--------------0----0---0-3b4-0------|
A|--0-0--3b4------------------------0--3b4------------------------0--3b4--------------|
E|------------------------------------------------------------------------------------|
                   F   F5    D
E|--0------------------------2~-------------------------------------------------------|
B|----3---3------------------3~-------------------------------------------------------|
G|------2---2------2---------2~-------------------------------------------------------|
D|------------0----3---3b----0--------------------------------------------------------|
A|--------------0--3---3b-------------------------------------------------------------|
E|---------------------1b-------------------------------------------------------------|




[Verso] 
D                (D9 D D4)    C9                 G
It's all the same,         only the names will change
C9        G                    F       D
And ev'ry day, it seems we're wasting away
D           (D9 D D4)    C9           G
Another place, where the faces are so cold
C9             G              F         D
I'd drive all night, just to get back home
 
[Refrão] 
     C       G        F           D
I'm a cowboy, on a steel horse I ride
C         G  F       D
I'm wanted, dead or alive
C     G  F       D
Wanted, dead or alive
 
[Verso] 
D                (D9 D D4)  C9                 G
Sometimes I sleep,     sometimes it's not for days
C9            G           F                  D
and people I meet, always go their separate ways
D                  (D9 D D4)       C9               G
Sometimes you tell the day, by the bottle that you drink
C9                  G              F            D
And times when you're alone, and all you do is think
 
[Refrão] 
     C       G        F           D
I'm a cowboy, on a steel horse I ride
C         G  F       D
I'm wanted, dead or alive
C     G  F       D
Wanted, dead or alive

[Solo] 
 
E|------------------------------------------|
B|------------------------------------------|
G|-7\5--5/7~--------------------------------|
D|----------------------------0h3-5b7--b7---|
A|-5\3--3/5~---5\3-3h5~---5-0---------------|
E|------------------------------------------|

E|----------------------------13-15-15b17---|
B|----------------------13-15---------------|
G|----------------12-14---------------------|
D|-b7--b7r5--3~~----------------------------|
A|------------------------------------------|
E|------------------------------------------|

E|-b17r15p13-15b17~~------------------------|
B|------------------------------------------|
G|------------------------------------------|
D|-------------------------------5-5-5/7~---|
A|-----------------------5~--3-0-3-3-3/5~---|
E|------------------------------------------|

E|------------------------------------------|
B|------------------------------------------|
G|------------------------------------------|
D|-----3~----------3-5-5b7r5-3~-------------|
A|-3-5-----5p0-3h5--------------------------|
E|------------------------------------------|

E|------------------------------------------|
B|------------------------------------------|
G|------------------------------------------|
D|-0h3p0-------3-2h3-2-3~~------------------|
A|-------5-3-5------------------------------|
E|------------------------------------------|

E|-------8-------8-------8------------------|
B|-8b10----8b10----8b10----8b10r8-6~--------|
G|------------------------------------------|
D|------------------------------------------|
A|------------------------------------------|
E|------------------------------------------|

E|------------------------------------------|
B|------------------------------------------|
G|------------------------------------------|
D|---------------7~-------------------------|
A|-3h5-3---------5~-------------------------|
E|-------7-5-3-2----------------------------|
 
C                    G        F             D
Ooooh and I'm a cowboy, on a steel horse I ride
C                     F       D
I'm wanted (wanted), dead or alive
 
D 

[Verso] 

D                   (D9 D D4)   C9                 G
And I walk these streets, a loaded six string on my back
C9              G           F                  D
I play for keeps, 'cause I might not make it back
D                       C               G
I been everywhere, still I'm standing tall
C9                   G               F           D
I've seen a million faces, and I've rocked them all
 
[Chorus/Outro]
C                 G        F             D
'Cause I'm a cowboy, on a steel horse I ride
C         G           F       D
I'm wanted (wanted), dead or alive
C               G             F           D
Well I'm a cowboy, I got the night on my side
C          G          F       D
I'm wanted (wanted), dead or alive
C       G       C       G
Dead or alive, dead or alive
C       G        F         D
Dead or alive, I still ride  (still ride)
C       G       C       G
Dead or alive, Dead or alive
C       G       C       G
Dead or alive, dead or alive
C       G
Dead or alive, dead or alive
00:00 / 00:00
Outros vídeos desta música
Repetir
Outros vídeos desta música
Composição de Jon Bon Jovi / Richie Sambora
Colaboração e revisão:
  • Matheus Delôgo
  • Renan Camargo
  • Rodrigo
540.344 exibições
  • Simplificar cifra
    • ½ Tom
    • A
    • Bb
    • B
    • C
    • Db
    • D
    • Eb
    • E
    • F
    • F#
    • G
    • Ab
  • Adicionar à lista

    0 comentários

    Ver todos os comentários

    Conseguiu tocar?

    83 Tocaram 9 Ainda não

    Grave um vídeo tocando Wanted Dead Or Alive e nos envie!

    Entre para oCifra Club PRO

    Tenha acesso a benefícios exclusivos no App e no Site

    • Chega de anúncios

    • Prioridade de compra em lançamentos

    • Mais recursos no app do Afinador

    • Atendimento Prioritário

    • Descontos nos produtos Cifra Club

    • Ajude a produzir mais conteúdo

    00:00 / 00:00
    Capítulos
    • Tocando a música
    • Dicas Iniciais / Equipamentos
    • Solo (32bpm)
    • Solo (65bpm)
    • Encerramento
    • Ficha Técnica

    Cifra Club Pro

    Aproveite o Cifra Club com benefícios exclusivos e sem anúncios
    Cifra Club Pro
    Aproveite o Cifra Club com benefícios exclusivos e sem anúncios
    OK