Cifra Club

Como Yo Nadie Te Ha Amado

Bon Jovi

Cifra: Principal (violão e guitarra)
Selo Cifra Club: esta cifra foi revisada para atender aos critérios oficiais da nossa Equipe de Qualidade.
tom: E
[Intro] E  B/D#  D  A
        Am  E  B

[Tab - Intro]

    E         B/D#   D            A 
E|----------------------------7-------------|
B|--9--9-9--9-7------7--7-7h9-----5---------|
G|------------------------------------------|
D|--------------------------------7---------|
A|--7-------7-6------5----------------------|
E|------------------------------------------|

   Am             E               B
E|------------------------------------------|
B|-4/5--5---------0-------------------------|
G|---------5--5---1----4/6-4----------------|
D|-6/7-----7------------------4/6\4---------|
A|------------------------------------------|
E|----------------0-------------------------|

E|------------------------------------------|
B|------------------------------------------|
G|---------4--6/8---------------------------|
D|------4-----------------------------------|
A|-4/6--------------------------------------|
E|------------------------------------------|

[Primeira Parte]

E                      B
  Yo no vi las flores marchitar
D                      A
  Ni ese frío en tus ojos al mirar
Am                E         B
   No, no ví la realidad me ibas a dejar

E
  Dicen que la vida, baby
 B
No es como la ves
D                A
  Para aprender hay que caer
Am             E                
   Para ganar hay que perder
    B
Lo dí todo por tí

[Pré-Refrão]

    A
Lloré y lloré
     C#m                B
Y juré que no iba a perderte
    A
Traté y traté
      C#m                  B
De negar este amor tantas veces, baby

[Refrão 1]

        E                  B
Si mis lágrimas fueron en vano
         C#m                A
Si al final yo te amé demasiado
      E        B     A
Como yo, como yo nadie te ha amado

[Segunda Parte]

E                 B
  Cada hora una eternidad
D                  A
  Cada amanecer un   comenzar
Am        E
   Ilusiones nada más
     B
Que fácil fue soñar

E                  B
  Tantas noches de intimidad
D          A
  Parecían   no acabar
Am          E              
   Nos dejamos desafiar
   B
Y hoy nada es igual

[Pré-Refrão]

 A                    C#m
Sé que en verdad el amor
                   B
Al final siempre duele
       A
No lo pude salvar
       C#m                B
Y hoy voy a pagarlo con creces, baby

[Refrão 2]

        E                  B
Si mis lágrimas fueron en vano
         C#m                A
Si al final yo te amé demasiado
      E        B     A
Como yo, como yo nadie te ha amado

      E                  B
Esta vez la pasión ha ganado
      C#m         A
Y por eso sigo esperando
      E        B     A
Como yo, como yo nadie te ha amado

[Solo] D  A  Bm  G
       D  A  G

[Pré-Refrão]

    A
Lloré y lloré
     C#m                B
Y juré que no iba a perderte
    A
Traté y traté
      C#m                  B
De negar este amor tantas veces, baby

[Refrão Final]

        E                  B
Si mis lágrimas fueron en vano
         C#m                A
Si al final yo te amé demasiado
      E        B     A
Como yo, como yo nadie te ha amado

      E                  B
Esta vez la pasión ha ganado
      C#m           A
Y por eso sigo esperando
      E        B     A
Como yo, como yo nadie te ha amado
      E        B     A
Como yo, como yo nadie te ha amado
      E        B               A
Como yo, como yo nadie te ha amado

[Final] E  B/D#  D  A
        Am  E  B
        E  B/D#  D  A
        Am  E  B
        E  B/D#  D  A
        Am  E  B  E

[Tab - Final - 3x]

    E         B/D#   D            A 
E|----------------------------7-------------|
B|--9--9-9--9-7------7--7-7h9-----5---------|
G|------------------------------------------|
D|--------------------------------7---------|
A|--7-------7-6------5----------------------|
E|------------------------------------------|

   Am             E               B
E|------------------------------------------|
B|-4/5--5---------0-------------------------|
G|---------5--5---1----4/6-4----------------|
D|-6/7-----7------------------4/6\4---------|
A|------------------------------------------|
E|----------------0-------------------------|

E|------------------------------------------|
B|------------------------------------------|
G|---------4--6/8---------------------------|
D|------4-----------------------------------|
A|-4/6--------------------------------------|
E|------------------------------------------|
Outros vídeos desta música
    66.527 exibições
    • Simplificar cifra
      • ½ Tom
      • A
      • Bb
      • B
      • C
      • Db
      • D
      • Eb
      • E
      • F
      • F#
      • G
      • Ab
    • Adicionar à lista

    Afinação da cifra

    Afinador online

      0 comentários

      Ver todos os comentários

      Entre para o Cifra Club PRO

      Tenha acesso a benefícios exclusivos no App e no Site

      • Chega de anúncios

      • Badges exclusivas

      • Mais recursos no app do Afinador

      • Atendimento Prioritário

      • Aumente seu limite de lista

      • Ajude a produzir mais conteúdo

      Cifra Club Pro

      Aproveite o Cifra Club com benefícios exclusivos e sem anúncios
      Cifra Club Pro
      Aproveite o Cifra Club com benefícios exclusivos e sem anúncios
      Ops (: Contenido disponible sólo en portugués.
      OK