Cifra Club

Thank You For Loving Me

Bon Jovi

Cifra: Principal
exibições 180.747
Tom: D
[Intro]  D  G  B  A

[Riff 1]

E|-----------------------------------------------------------------------|
B|-----------------------------------------------------------------------|
G|-7---7---7---7---7--9-9h11--9-7-----7----7---7---7---7-9-9h11--9-7--7--|
D|---7---7---7---7-----------------7--7h9----9---9---9----------------7--|
A|-----------------------------------------------------------------------|
E|-----------------------------------------------------------------------|

[Riff 2]

E|--------------------------------------------|
B|--------------------------------------------|
G|7-7-11--7h9--9---9---9---7--9--9h11--9--7---|
D|7-7--7--7------7---7---7--------------------|
A|--------------------------------------------|
E|--------------------------------------------|

[Solo]

    D                    G    B                       A
E|-------------------------|----------------------------|
B|--10b12b10---------------|--10b12b10------------------|
G|-----------11--9h11p9--7-|------------11--9h11p9--7/9-|
D|-------------------------|----------------------------|
A|-------------------------|----------------------------|
E|-------------------------|----------------------------|

     G                               D
Its hard for me to say the things I wanna say sometimes
        G                                   D
Theres no-one here but you and me and the broken old street light
          Bm       G                  A
Lock the door and leave the world outside
D                G                A
All I've got to give to you are these five words and I

       D             G
Thank you for lovin me
             A         D
For being my eyes when I couldn't see
             Bm       A               E   A
For parting my lips when I couldn't breathe
       D       G     A
Thank you for lovin me
       D       G     A
Thank you for lovin me

   G                          D
I never knew I had a dream until that dream was you
  G                              D
When I look into your eyes the sky's a different blue
          Bm       G       A
Cross my heart, I wear no disguise
D                  G                 A
If I tried, you'd make believe that you beleive my lies

       D             G
Thank you for lovin me
             A         D
For being my eyes when I couldn't see
             Bm       A               E   A
For parting my lips when I couldn't breathe
       D       G     A
Thank you for lovin me
       D       G     A
Thank you for lovin me

G
  You pick me up when I fall down
A
  You ring the bell before they count me out
Em                            D/F#     G
  If I was drownin you would part the sea
C                        D      Em  A
  And risk your life to rescue me  

[Solo]

    D                       G          A         D
E|---------------------------------|-------------------------------|
B|---------------------------------|--14-15-17--20-19h20p19-17-19--|
G|---9b11-9b11-9b11b9-7h9----------|-------------------------------|
D|------------------------7h9--9-7-|-------------------------------|
A|---------------------------------|-------------------------------|
E|---------------------------------|-------------------------------|

          Bm       G                  A
Lock the door and leave the world outside
D                G                     C             A
All I've got to give to you are these five words and I

       D             G
Thank you for lovin me
             A         D
For being my eyes when I couldn't see
             Bm       A               E   A
For parting my lips when I couldn't breathe
       D             G
Thank you for lovin me
                  A        D
When I couldn't fly  oh   you gave me wings
             Bm       A               E   A
For parting my lips when I couldn't breathe
       D       G     A
Thank you for lovin me
       D       G     A
Thank you for lovin me
       D       G     A
Thank you for lovin me

    D                   G       Bm                   A
E|-------------------------|----------------------------|
B|--10b12b10---------------|--10b12b10------------------|
G|-----------11--9h11p9--7-|------------11--9h11p9--7/9-|
D|-------------------------|----------------------------|
A|-------------------------|----------------------------|
E|-------------------------|----------------------------|

             D
E|-----------------------------|
B|-----------------------------|
G|-------7-9-7-----------------|
D|-----7-----------------------|
A|-7/9-------------------------|
E|-----------------------------|
Acordes para:
    Composição: Jon Bon Jovi / Richie SamboraColaboração e revisão:

    0 comentários

      mostrar mais comentários

      Conseguiu tocar?

      17tocaram1ainda não

      Grave um vídeo tocando Thank You For Loving Me e mande pra gente!

      00:00 / 00:00
      outros vídeos desta música
      repetirqualidadeautomática
      Outro vídeos desta música
        00:00 / 00:00
        automática
        OK