Enviar cifraEntrar

Never Say Goodbye

Bon Jovi

Cifra: Principal
exibições 119.806
Tom: D
Intro:

   A          C#m      D           Dm    
e|----------|--------|-----------|----------------|
B|----------|-----2--|-2h3-2-----|--2h3-2---------|
G|---4-4b6b4|---4----|-------4-2-|--------4-2-----|
D|-2--------|-2------|-----------|------------2~~-|
A|----------|--------|-----------|----------------|
E|----------|--------|-----------|----------------| 


A                            C#m
 As I sit in this smokey room  the night about to end 
G                                        D
 I pass my time with strangers, but the bottle's my only friend 
A                                 C#m
 Remember when we used to park on Butler Street out in the dark 
G                                   D 
 Remember when we lost the keys and you lost more than that in my back seat, baby 
A                                  C#m 
 Remember when we used to talk about busting out, we'd break their hearts. 

REFRÂO

(Richie)

    G                D
e|-------------------------------------
B|-------------------------------------
G|-------------------------------------
D|------0-------0~---------------0-----
A|----2-------0--------2-3----0--------
E|--3------2---------3------2----------

 Toge|----ther     Fore|-----ver


  A                  C#m        D                Dm
e|----------------|--------9--|---9h10--9-------|9h10-9-----------
B|----12-12b14b12-|----12-----|----------12--10-|--------12-10----
G|-9--------------|-9---------|-----------------|-----------------
D|----------------|-----------|-----------------|----------------- (2x) 
A|----------------|-----------|-----------------|-----------------
E|----------------|-----------|-----------------|-----------------



    G  D           G  D           
 Together       forever                                       
  A                 C#m                         
 Say goodbye, never say goodbye                          
D                               Dm            
 You and me and my old friends, hoping it would never end      
  A                 C#m                               
 Say goodbye, never say goodbye                               
D                          Dm                 
 Holding on we got to try, holding on to never say goodbye   

INTRO 

A                                   C#m
 Remember days of skipping school, racing cars and being cool, 
G                                 D
 With a six pack and a radio, we didn't need no place to go 
A                                 C#m
 Remember at the prom that night, you and me we had a fight, 
G                                               D
 But the band they played our favorite song and I held you in my arms so strong 
A                                            C#m
 We danced so close, we dance so slow, and I swore I'd never let you go


REFRÃO


SOLO (A C#m D Dm G)2x
e|---------------------------------------------------------------------------
B|--------------3-2---------5b7-b5--14b16b14b16-10---------------------------
G|--------2--4------4b6b4-2--------------------------------------------------
D|------2-----------------------------------------------3-5-5s7-----5-7-7s9--
A|--2s4---------------------------------------------1s3---------3s5----------
E|---------------------------------------------------------------------------


e|---------------------------------------------------12b14~~--12-20b22b20b22b20-----
B|-------------10h12p10--12h14p12--15-14-12h14p12-10----------------------------21~-
G|6h7p6-9h11p9----------------------------------------------------------------------
D|----------------------------------------------------------------------------------
A|----------------------------------------------------------------------------------
E|----------------------------------------------------------------------------------


(não use a pelheta aqui... use o dedo!!)

e|-13-16p13h15p13h16p13h15-------------------------15-18p15h17p15h18p15h17--
B|-------------------------13-16p13h15p13h16p13h15--------------------------
G|--------------------------------------------------------------------------
D|--------------------------------------------------------------------------
A|--------------------------------------------------------------------------
E|--------------------------------------------------------------------------


e|------------------------17~~--
B|-15-18p15h17p15h18p15h17------
G|------------------------------
D|------------------------------
A|------------------------------
E|------------------------------


     A                                      C#m 
 Oh I guess you'd say we used to talk about busting out we'd break their hearts 

REFRÃO

final(2x) (A  C#m  D  Dm)
          (mesmo riff do refrão com uma pequena mudança)  


e|----------------------------------9--9h10-9--------9h10-9-------- (2x, na 2a 
B|---12--12b14b12b14b12b14b12----12-----------12-10----------12-10-   diminui a
G|-9--------------------------9------------------------------------    velocidade)


e|------9-----9--
B|---10-----10--- (várias vezes, até enjoar)
G|-9------9------
  • 1
  • 2
  • 3
  • 4
  • 5
  • 6
  • 7
  • 8
  • 9
  • 10
  • 11
  • 12
    Acordes para:
      Composição: Jon Bon Jovi / Richie SamboraColaboração e revisão:
      • Birro
      • Sirion Crawler

      0 comentários

        mostrar mais comentários

        Conseguiu tocar?

        22tocaram0ainda não

        Grave um vídeo tocando Never Say Goodbye e mande pra gente!

        00:00 / 00:00
        outros vídeos desta música
        repetirqualidadeautomática
        • automática
        Outro vídeos desta música
          00:00 / 00:00
          automática
          • automática
          Acordes para:violão e guitarra
          dificuldadeexibiçõescontribuições
          1 versão de Guitar Proformatodownloadscontribuição
          fecharplay/pause subir/descer velocidade
            acordes
            fechar
            OK
            Feedback