Cifra Club

I'll Be There For You

Bon Jovi

Cifra: Principal (violão e guitarra)
Selo Cifra Club: esta cifra foi revisada para atender aos critérios oficiais da nossa Equipe de Qualidade.
tom: D
[Intro] D

[Tab - Intro]

   D
E|------------------------------------------|
B|------------------------------------------|
G|-5/7----7-----7/9----9--------------------|
D|-0----------0-----------------------------|
A|------------------------------------------|
E|------------------------------------------|

E|------------------------------------------|
B|------------------------------------------|
G|---9/12----12------12\11----11\-----------|
D|-0---------------0------------------------|
A|------------------------------------------|
E|------------------------------------------|

E|------------------------------------------|
B|------------------------------------------|
G|---5/7----7------7/9----9-----------------|
D|-0-------------0--------------------------|
A|------------------------------------------|
E|------------------------------------------|

E|------------------------------------------|
B|------------------------------------------|
G|---9/12------12--11-----------------------|
D|-0---------0------0-----------------------|
A|------------------------------------------|
E|------------------------------------------|

[Primeira Parte]

[Tab - Primeira Parte]

   Em7                      G
        H.N
E|------12----------------------------------|
B|------12----------------------------------|
G|------12----------------------------------|
D|------------------------------------------|
A|------------------------------------------|
E|-0----------------------------------------|

   D
E|------------------------------------------|
B|-3/5--5\3--3--------------3---------------|
G|-2/4--4\2--2--2/4\2--2/4--2---------------|
D|--------------2/4\2--2/4--0---------------|
A|------------------------------------------|
E|------------------------------------------|

   Em7                      G
E|------14----------------------------------|
B|------15----------------------------------|
G|------14----------------------------------|
D|------------------------------------------|
A|------------------------------------------|
E|-0----------------------------------------|

   D
E|------------------------------------------|
B|-10~\----5/7--5--5/7~---------------------|
G|--9~\---------4--4/7~---------------------|
D|-----------------0------------------------|
A|------------------------------------------|
E|------------------------------------------|

I guess this time
               Em7    G
You're really leaving

I heard your suitcase
    D
Say   goodbye

Well, as my broken heart
     Em7          G
Lies     bleeding

You say: True love
         D
It's suicide

[Pré-Refrão]

[Tab - Pré-Refrão]

   Em7                      G
        H.N
E|------12----------------------------------|
B|------12-12-------------------------------|
G|------12----12----------------------------|
D|------------------------------------------|
A|------------------------------------------|
E|-0--------------------0-2-3---------------|

                   D
E|------------------------------------------|
B|-----7------------------------------------|
G|-----7--7h9p7--------7--------------------|
D|-7/9-----------------7--------------------|
A|-----------------7/9----------------------|
E|------------------------------------------|

E|-10/12\10---------------------------------|
B|-10/12\10---10-10/12\10--/12--------------|
G|----------------9/11\-9--/11--------------|
D|---------------------------0--------------|
A|------------------------------------------|
E|------------------------------------------|

   Em7                      G
           H.N
E|------------------------------------------|
B|----------7-------------------------------|
G|-0----------7---7-5-----------------------|
D|-2------------7-----5-7-------------------|
A|-2----------------------------------------|
E|-0------------------------3---------------|

   A
E|-----9\7---7\5---5/7---7/9---9------------|
B|------------------------------------------|
G|-7/9-----7-----6-----7-----9--------------|
D|------------------------------------------|
A|------------------------------------------|
E|------------------------------------------|

You say you've cried
            Em7   G
A thousand rivers

And now you're swimming
    D
For   the shore

You left me drowning
       Em7  G
In my tears

And you won't save me
    A
Anymore

I'm praying to God

You give me one more chance, girl

[Refrão]

[Tab - Refrão]

   D5            A/C#  B5
E|------------------------------------------|
B|------------------------------------------|
G|-7-------------------4--------------------|
D|-7--------------7----4--------------------|
A|-5--------------4----2--------------------|
E|------------------------------------------|

       G5       A5           C5      G5
  P.M
E|------------------------------------------|
B|-----3------------------------------------|
G|-----0--------2------------5--------------|
D|-----0--------2------------5-------5------|
A|--------------0--------0-0-3---3-3-5------|
E|-0-2-3-----------------------------3---3-3|

   D5            A/C#  B5
E|------------------------------------------|
B|------------------------------------------|
G|-7-------------------4--------------------|
D|-7--------------7----4--------------------|
A|-5--------------4----2--------------------|
E|------------------------------------------|

       G5       A5           C5      G5
  P.M
E|------------------------------------------|
B|------------------------------------------|
G|-----0--------2------------5--------------|
D|-----0--------2------------5-------5------|
A|--------------0--------0-0-3---3-3-5------|
E|-0-2-3-----------------------------3---3-3|

   D5
E|------------------------------------------|
B|-3----------------------------------------|
G|-2----------------------------------------|
D|-0----------------------------------------|
A|------------------------------------------|
E|------------------------------------------|

D5                       A/C#
   I'll be there for you
  B5
These five words

I swear to you
           G5
When you breathe

I wanna be the air for you
A5        C5   G5  D5
I'll be there for you
                             A/C#  B5
I'd live and I'd die for you

I'd steal the Sun

From the sky for you
 G5        
Words can't say what love can do
A5        C5   G5  D5
I'll be there for you

[Tab - Interlúdio]

   D
E|------------------------------------------|
B|------------------------------------------|
G|-5/7----7-----7/9----9--------------------|
D|-0----------0-----------------------------|
A|------------------------------------------|
E|------------------------------------------|

E|------------------------------------------|
B|------------------------------------------|
G|---9/12------12--11-----------------------|
D|-0---------0------0-----------------------|
A|------------------------------------------|
E|------------------------------------------|

[Segunda Parte]

[Tab - Segunda Parte]

   Em7                      G
E|-----12-----------------------------------|
B|-----12-----------------------------------|
G|-----12------------------------7/9\7~-----|
D|------------------------------------------|
A|------------------------------------------|
E|-0----------------------------------------|

   D
E|------10-------12-------14------12--10----|
B|------------------------------------------|
G|-9/11----11/12----12/14---14\12-----11----|
D|-------------------------------------0----|
A|------------------------------------------|
E|------------------------------------------|

   Em7                      G
      H.N
E|------------------------------------------|
B|-----7-5-----7----12--------------3-------|
G|-----7---5-----12-----------------0-------|
D|-----7-----5----------------------0-------|
A|------------------------------------------|
E|-0--------------------0-2-3---------------|

   A
E|------------------------------------------|
B|------------------------------------------|
G|-2----2---2---4---6~----------------------|
D|-2----2---2---2---7~----------------------|
A|-0------0---0---0-0-----------------------|
E|------------------------------------------|

I know you know
                Em7       G
We've had some good times

Now they have their own
         D
Hiding place
                     Em7   G
I can promise you tomorrow
                            A
But I can't buy back yesterday
                                  G5
And, baby, you know my hands are dirty

[Terceira Parte]

[Tab - Terceira Parte]

   G5
E|------------------------------------------|
B|-3----------------2-----------------------|
G|-0----------------2-----------------------|
D|-0----------------2-----------------------|
A|------------------0-----------------------|
E|-3----------------------------------------|

   D5     A/C#      B5
                            P.m
E|------------------------------------------|
B|-------------------------3---2---3--------|
G|-7----------------4------4---4---4--------|
D|-7-------6--------4-----------------------|
A|-5-------4--------2--------2---2----------|
E|------------------------------------------|

       G5                        A5
  P.M
E|------------------------------------------|
B|-----3----2---3---3----2---3--------------|
G|-----0----0---0---0----0---0---2----------|
D|-----0----0---0---0----0---0---2----------|
A|-------------------------------0----------|
E|-0-2-3----3-3-3-3-3----3-3-3-3------------|

                                  A5
Oh, woman, you know my hands are dirty

But I wanted to be your
      D5  A/C#  B5
Valenti____________ne

I'll be the water
               G5 
When you get thirsty, baby

When you get drunk
             A5
I'll be the wine

[Refrão]

D5                       A/C#
   I'll be there for you
  B5
These five words

I swear to you
           G5
When you breathe

I wanna be the air for you
A5        C5   G5  D5
I'll be there for you
                             A/C#  B5
I'd live and I'd die for you

I'd steal the Sun

From the sky for you
 G5        
Words can't say what love can do
A5        C5   G5  
I'll be there for you

[Solo] D5  B5  G5  A5
       D5  B5  G5  A5

[Tab - Solo]

E|-----------------------------------------------------|
B|-10----------10-----------------------x-x------------|
G|--9b11------b11--b11r9p7---7~---------x-x------------|
D|-------------------------9------9--7--x-x------------|
A|-----------------------------------------------------|
E|-----------------------------------------------------|

E|-----------------------------------------------------|
B|-10-------------------------------x------------------|
G|--9b11-----------b11r9p7---7~---9-x------------------|
D|-------------------------9--------x------------------|
A|-----------------------------------------------------|
E|-----------------------------------------------------|

E|-----------------------------------------------------|
B|-----------------------------------------------------|
G|-----7-7-x-7-----7-7-x-7-----7-7-x-7-----------------|
D|-----7-7-x-7-----7-7-x-7-----7-7-x-7-----------------|
A|-7h9---------7h9---------7h9-------------------------|
E|-----------------------------------------------------|

E|-------------7---------------------------------------|
B|-----------7---10b12~-----10b12r10--7----------------|
G|-9p7-9b11-----------------------------9b----7--------|
D|----------------------------------------------9-7----|
A|-----------------------------------------------------|
E|-----------------------------------------------------|

E|-----------------------------------------------------|
B|-----------------------------------------------------|
G|-9/11\9--7--7-9/11\9--9/12----12\11--11\-------------|
D|-----------------------------------------------------|
A|-7/-9\7--5--5-7/-9\7--7/10----10\-9---9\-------------|
E|-----------------------------------------------------|

E|-----------------------------------------------------|
B|-----------------------------------------------------|
G|-9/11\9--7--7-9/11\9--9/12----12\11--11\---4~--------|
D|-----------------------------------------------------|
A|-7/-9\7--5--5-7/-9\7--7/10----10\-9---9\---2~--------|
E|-----------------------------------------------------|

E|------------7----------------------------------------|
B|---10b12~-----10-7-----------------------------------|
G|-7-----------------9b11r9p7---9---7b-----------------|
D|----------------------------9---9--------------------|
A|-----------------------------------------------------|
E|-----------------------------------------------------|

E|----------------------------------------7------------|
B|-------------------------------------7-----10b12~----|
G|---9brp7---------9brp7---------9b11------------------|
D|-x-------9-7-----------9-7---------------------------|
A|-------------9-7-----------9-7-----------------------|
E|-----------------------------------------------------|

E|-----------------------------------------------------|
B|-----------------------------------------------------|
G|-9-7-9b10r9p7---9~~----------------------------------|
D|--------------9--------------------------------------|
A|-----------------------------------------------------|
E|-----------------------------------------------------|

[Quarta Parte]

[Tab - Quarta Parte]

   G5
E|------------------------------------------|
B|-3----------------2-----------------------|
G|-0----------------2-----------------------|
D|-0----------------2-----------------------|
A|------------------0-----------------------|
E|-3----------------------------------------|

   D5        A/C#        B5
       P.M
E|------------------------------------------|
B|----------------------------3---2---3-----|
G|-7-------7--6-------6--4----4---4---4-----|
D|-7---------------------4------------------|
A|-5----5--5--4----4--4--2------2---2-------|
E|------------------------------------------|

       G5                    A5
  P.M
E|------------------------------------------|
B|-----3----2---3---3-----------------------|
G|-----0----0---0---0--------2--2--2--2-----|
D|-----0----0---0---0--------2--2--2--2-----|
A|---------------------------0--0--0--0-----|
E|-0-2-3----3-3-3-3-3-----------------------|

  P.M
E|------------------------------------------|
B|------------------------------------------|
G|-----------------2------------------------|
D|-----------------2------------------------|
A|-0-0-0-0-0-0-0-0-0------------------------|
E|------------------------------------------|

                              G5
I wasn't there when you were happy
                            A5
I wasn't there to make you happy

And I wasn't there
               D5   A/C#  B5
When you were down,          down

I didn't mean
              G5
To miss your birthday, baby

I wish I'd seen you blow
              A5
Those candles out

[Refrão]

D5                       A/C#
   I'll be there for you
  B5
These five words

I swear to you
           G5
When you breathe

I wanna be the air for you
A5        C5   G5  D5
I'll be there for you
                             A/C#  B5
I'd live and I'd die for you

I'd steal the Sun

From the sky for you
 G5        
Words can't say what love can do
A5        C5   G5 
I'll be there for

[Tab - Refrão Final]

   E5            B/D#  C#5
E|------------------------------------------|
B|------------------------------------------|
G|---------------------6--------------------|
D|-2--------------9----6--------------------|
A|-2--------------6----4--------------------|
E|-0----------------------------------------|

   A5           B5           D5      A5
                         P.M
E|------------------------------------------|
B|------------------------------------------|
G|-2------------4------------7--------------|
D|-2------------4------------7-------7------|
A|-0------------2--------2-2-5---5-5-7------|
E|-----------------------------------5---5-5|

   E5            B/D#  C#5
E|------------------------------------------|
B|------------------------------------------|
G|---------------------6--------------------|
D|-2--------------9----6--------------------|
A|-2--------------6----4--------------------|
E|-0----------------------------------------|

   A5           B5           D5      A5
                         P.M
E|------------------------------------------|
B|------------------------------------------|
G|-2------------4------------7--------------|
D|-2------------4------------7-------7------|
A|-0------------2--------2-2-5---5-5-7------|
E|-----------------------------------5---5-5|

E5                       B/D#
   I'll be there for you
  C#5
These five words

I swear to you
           A5
When you breathe

I wanna be the air for you
B5        D5   A5  E5
I'll be there for you
                             B/D#  C#5
I'd live and I'd die for you

I'd steal the Sun

From the sky for you
 A5        
Words can't say what love can do
B5        D5   A5   
I'll be there for you

[Final] E5  B/D#  C#5  A5  B5 ( D5  A5 )
        E5  B/D#  C#5  A5  B5 ( D5  A5 )
        E5

[Tab - Final]

   E5                              B/D#
E|------------------------------------------|
B|------------------------------------------|
G|-11/13\11\9--11/13\11/14---14\13--13------|
D|------------------------------------------|
A|--9/11\-9\7---9/11\-9/12---12\11--11------|
E|------------------------------------------|

   C#5
E|------------------------------------------|
B|------------------------------------------|
G|-11/13\11\9--11/13\11/14---14\13--13------|
D|------------------------------------------|
A|--9/11\-9\7---9/11\-9/12---12\11--11------|
E|------------------------------------------|

   A5
E|------------------------------------------|
B|------------------------------------------|
G|-11/13\11\9--11/13\11/14---14\13--13\-----|
D|------------------------------------------|
A|--9/11\-9\7---9/11\-9/12---12\11--11\-----|
E|------------------------------------------|

   B5       D5   A5
E|------------------------------------------|
B|------------------------------------------|
G|-8----x-x-7---/13-------------------------|
D|------x-x---------------------------------|
A|-6----x-x-5---/11-------------------------|
E|------------------------------------------|

   E5                              B/D#
E|------------------------------------------|
B|------------------------------------------|
G|-11/13\11\9--11/13\11/14---14\13--13------|
D|------------------------------------------|
A|--9/11\-9\7---9/11\-9/12---12\11--11------|
E|------------------------------------------|

   C#5
E|------------------------------------------|
B|------------------------------------------|
G|-11/13\11\9--11/13\11/14---14\13--13------|
D|------------------------------------------|
A|--9/11\-9\7---9/11\-9/12---12\11--11------|
E|------------------------------------------|

   A5
E|------------------------------------------|
B|------------------------------------------|
G|-11/13\11\9--11/13\11/14---14\13--13\-----|
D|------------------------------------------|
A|--9/11\-9\7---9/11\-9/12---12\11--11\-----|
E|------------------------------------------|

   B5       D5       A5       E5
E|------------------------------------------|
B|------------------------------------------|
G|-8----x-x-7---x-x-/13---x-x-9-------------|
D|------x-x-----x-x-------x-x---------------|
A|-6----x-x-5---x-x-/11---x-x-7-------------|
E|------------------------------------------|
Outros vídeos desta música
    638.308 exibições
      • ½ Tom
      • A
      • Bb
      • B
      • C
      • Db
      • D
      • Eb
      • E
      • F
      • F#
      • G
      • Ab
    • Adicionar à lista

    Afinação da cifra

    Afinador online

      0 comentários

      Ver todos os comentários

      Entre para o Cifra Club PRO

      Tenha acesso a benefícios exclusivos no App e no Site

      • Chega de anúncios

      • Badges exclusivas

      • Mais recursos no app do Afinador

      • Atendimento Prioritário

      • Aumente seu limite de lista

      • Ajude a produzir mais conteúdo

      Capítulos
      • Apresentação
      • Dicas Iniciais
      • Tocando a Introdução
      • Timbres dos Pedais
      • Ensinando a Primeira Parte
      • Dicas do Pré-Refrão
      • Ensinando o Pré-Refrão
      • Dicas do Refrão
      • Ensinando o Refrão
      • Dicas da Segunda Parte
      • Ensinando a Segunda Parte
      • Ensinando a Terceira Parte
      • Dicas do Solo
      • Tocando o Solo
      • Ensinando o Solo
      • Dicas Finais
      • Ensinando o Final
      • Encerramento

      Cifra Club Pro

      Aproveite o Cifra Club com benefícios exclusivos e sem anúncios
      Cifra Club Pro
      Aproveite o Cifra Club com benefícios exclusivos e sem anúncios
      Ops (: Contenido disponible sólo en portugués.
      OK