Cifra Club

Someday I'll Be Saturday Night

Bon Jovi

Cifra: Principal
exibições 143.912
Tom: E
[Intro]

E|------5-7-5------------------------------|
B|-5/7--5-7-5--7-5-7-----------------------|
G|-4/6---------6-4-6-----------------------|
D|-----------------------------------------|
A|-----------------------------------------|
E|-----------------------------------------|

      E
Hey, man I'm alive
     Asus2
I'm taking each day a night at a time 
     Bsus4
I'm feeling like a Monday
     Asus2                    E
But someday I'll be Saturday night 

 E
Hey, my name is Jim, where did I go wrong? 
    G#m
My life's a bargain basement, all the good shit's gone 
   A
I just can't hold a job, where do I belong 
       E                      B         E
Been sleeping in my car, my dreams move on 

    E
My name is Billy Jean, my love was bought and sold 
    G#m
I'm only sixteen, I feel a hundred years old 
    A
My foster daddy went, took my innocence away 
       B                                  Bsus4       B
The street life aint much better, but at least I get paid 

     C#m                A
And Tuesday just might go my way 
    E
It can't get worse than yesterday 
  G#m
Thursdays, Fridays ain't been kind 
     A               F#m
But somehow I'll survive

 E                     Asus2
Hey man I'm alive I'm takin' each day and night at a time 
 E                                  Bsus4
Yeah I'm down, but I know I'll get by 
              Aus2    Bsus4
Hey hey hey, Hey Man gotta live my life 
     E                             C#m
Like I ain't got nothin' but this roll of the dice 
     Bsus4                      Asus2                E   A
I'm feelin' like a Monday, but someday I'll be Saturday night 

 E
Now I can't say my name, or tell you where I am 
            G#m
I want to blow myself away, don't know if I can 
A
I wish that I could be in some other time and place 
      B
With someone elses soul, someone elses face 

     C#m                A
And Tuesday just might go my way 
    E
It can't get worse than yesterday 
  G#m
Thursdays, Fridays ain't been kind 
     A               F#m
But somehow I'll survive

 E                 Asus2
Hey, man I'm alive I'm takin' each day and night at a time
 E                                  Bsus4
Yeah I'm down, but I know I'll get by 
              Asus2         Bsus4
Hey hey hey, Hey Man gotta live my life 
           E                                 C#m
I'm gonna pick up all the pieces and what's left of my pride 
     Bsus4                      Asus2                    E
I'm feelin' like a Monday, but someday I'll be Saturday night 

[Solo]  E  E  A  A
        E  E  A  A

E|------------------------------------------------|
B|------------------------------------------------|
G|------------------------------------------------|
D|------------------------------------------------|
A|---7---7-9b11---9b11r9--7-9---------------------|
E|-9---9----------------------9~------------------|

E|-----------------------------------9------------|
B|--9-----9------------------9--------------------|
G|-11b13--11b13r11-9----9-11---11b13---11b13r11-9-|
D|-------------------11---------------------------|
A|------------------------------------------------|
E|------------------------------------------------|

E|------------------------------------------------|
B|----9-------------------------------------------|
G|-11-11b13-11p9----9-11--------------------------|
D|---------------11------9h11~--------------------|
A|------------------------------------------------|
E|------------------------------------------------|

E|------------------------------------------------|
B|------------------------------------------------|
G|------------------------------------------------|
D|-9h11-9-----------------------------------------|
A|--------11-9-11-9-11-9-7~-----------------------|
E|------------------------------------------------|

 E A      E     A
Saturday night here we go
 E
Someday I'll be Saturday night
         A
I'll be back on my feet, I'll be doin' alright
    E
It may not be tomorrow baby, that's Okay 
         A
I ain't going down, gonna find a way, hey hey hey  

 E                     Asus2
Hey man I'm alive I'm taking each day and night at a time 
 E                               Bsus4
Yeah, I'm down, but I know I'll get by 
              Asus2          Bsus4
Hey hey hey, Hey man, gotta live my life 
       E                           C#m
Like I ain't got nothin' but this roll of the dice 
     Bsus4                      Asus2                    E
I'm feelin' like a Monday, but someday I'll be Saturday night
     Bsus4                      Asus2                    E
I'm feelin' like a Monday, but someday I'll be Saturday night 

( A  E  A )

          E    A      E          A
Saturday night   all right, all right
          E    A
Saturday night
Acordes para:

    0 comentários

      mostrar mais comentários

      Conseguiu tocar?

      14tocaram0ainda não

      Grave um vídeo tocando Someday I'll Be Saturday Night e mande pra gente!

      00:00 / 00:00
      outros vídeos desta música
      repetirqualidadeautomática
      Outro vídeos desta música
        00:00 / 00:00
        automática
        OK