Cifra Club

Every Rose Has Its Thorn

Poison

Cifra: Principal (violão e guitarra)
Tom: F# (forma dos acordes no tom de G) Afinação: Eb Ab Db Gb Bb Eb
Introdução: G  C9


Primeira Parte:

G
  We both lie silently still
        C9
In the dead of the night
             G
Although we both lie close together
         C9
We feel miles apart inside

        G
Was it something 
           C9
I said or something I did
        G                  C9
Did my words not come out right
           D
Though I tried not to hurt you
           C9
Though I tried

But I guess that's why they say


Primeiro Refrão:

G                     C9
Every rose has it's thorn
          G                     C9
Just like every night has it's dawn
          G      D                C9
Just like every cowboy sings his sad
     G
Sad song
                      C9
Every rose has it's thorn


Primeiro Solo: G  C9

E|-----------------------------------------------------|
B|-15-------15b17r--15~---------------------13p12------|
G|-14b16~~----------------------12-14p12----------12---|
D|------------------------12h14----------14------------|
A|-----------------------------------------------------|
E|-----------------------------------------------------|

E|----------15b17r--15~--------------------------------|
B|-15---------------------12/13--12~-------------------|
G|-14b16~----------------------------------------------|
D|-----------------------------------------------------|
A|-----------------------------------------------------|
E|-----------------------------------------------------|


Segunda Parte:

   G
I listen to our favorite song
                C9
Playing on the radio
         G
Hear the Dj say loves a game of
              C9
Easy come and    easy go

       G            C9
But I wonder, does he know?
       G                C9
Has he ever felt like this?
        D
And I know that you'd be here right now
     C9
If I    could have let you know somehow

I guess

   D                      C9
E|-2------2---3----2---2--3-----3--3--3-3-3-|
B|-3----3---3--------3----3-----3--3--3-3-3-|
G|-2----------------------0--0--0--0--0-0-0-|
D|-0----------------------2--2--------------|
A|------------------------3--3--------------|
E|------------------------------------------|


Segundo Refrão:

   G
E|-------3--------------3-------------------|
B|-----3----3---3-----3----3---3------------|
G|---0--------0-----0--------0--------------|
D|------------------------------------------|
A|------------------------------------------|
E|-3--------------3-------------------------|

   C9
E|-------3--------------3-------------------|
B|-----3----3---3-----3----3---3------------|
G|---0--------0-----0--------0--------------|
D|------------------------------------------|
A|-3--------------3-------------------------|
E|------------------------------------------|

   G
E|-------3--------------3-------------------|
B|-----3----3---3-----3----3---3------------|
G|---0--------0-----0--------0--------------|
D|------------------------------------------|
A|------------------------------------------|
E|-3--------------3-------------------------|

   C9
E|-------3--------------3-------------------|
B|-----3----3---3-----3----3---3------------|
G|---0--------0-----0--------0--------------|
D|------------------------------------------|
A|-3--------------3-------------------------|
E|------------------------------------------|

   G              D
E|-------3--------------2-3-2---------------|
B|-----3----3---3-----3-------3-------------|
G|---0--------0-----2-----------2-----------|
D|----------------0-------------------------|
A|------------------------------------------|
E|-3----------------------------------------|

   C9             G
E|-------3--------------3-------------------|
B|-----3----3---3-----3----3---3------------|
G|---0--------0-----0--------0--------------|
D|------------------------------------------|
A|-3----------------------------------------|
E|----------------3-------------------------|

                                 C9
E|-------3--------------3--------3----------|
B|-----3----3---3-----3----3---3-0----------|
G|---0--------0-----0--------0---0----------|
D|------------------------------------------|
A|-------------------------------3----------|
E|-3--------------3-------------------------|


G                     C9
Every rose has it's thorn
          G                     C9
Just like every night has it's dawn
          G      D                C9
Just like every cowboy sings his sad
     G
Sad song
                      C9
Every rose has it's thorn


Ponte:

Em                      D
   Though it's been a while now
        C9                G   ( G  F# )
I can still feel so much pain
Em
   Like a knife 
      D
That cuts you the wound heals
C9
   But the scar, that scar remains


Segundo Solo: G  C9  (2x)
              Em  D  C9  G  ( G  F# )
              Em  D  C9

E|-----------------------------------------------------|
B|-------------------------------------15--------------|
G|-9/11b/16~---17-16-17-16-17-14b16-------b16r14-12~---|
D|-----------------------------------------------------|
A|-----------------------------------------------------|
E|-----------------------------------------------------|

E|-----------------------------------------------------|
B|-b17r15~~--13p12-10-12p10-8-10p8-7-8p7---------------|
G|---------------------------------------7/9~~---------|
D|-----------------------------------------------------|
A|-----------------------------------------------------|
E|-----------------------------------------------------|
      \ /  \ /
E|------------------------15--------15-----------------|
B|-----------------15b17-----15b17-----15b17~~---------|
G|-/11---12---9----------------------------------------|
D|-----------------------------------------------------|
A|-----------------------------------------------------|
E|-----------------------------------------------------|
      \ /  \ /
E|--------------------17p15----15-19p15-17p15----15----|
B|-----------------17-------17----------------17-------|
G|-/11---12---9----------------------------------------|
D|-----------------------------------------------------|
A|-----------------------------------------------------|
E|-----------------------------------------------------|

E|-19p15-17p15----15-15~~------------------------------|
B|-------------17--------------------------------------|
G|-----------------------------------------------------|
D|-----------------------------------------------------|
A|-----------------------------------------------------|
E|-----------------------------------------------------|


Terceira Parte:

G  C9  G  C9

G
  I know I could have saved 

A love that night
       C9
If I'd    known what to say
G
  Instead of makin' love
    C9
We both made our separate ways

          G                     C9
And now I   hear you found somebody new
         G                   C9
And that I never meant that much to you
    D
To hear that tears me up inside
        C9
And to see you cuts me like a knife
        
I guess

E|-----------------------------------------------------|
B|--------------------------15--------15---------------|
G|-14b16r14p12-14~---14b16-----14b16-----b16r14-12~----|
D|-----------------------------------------------------|
A|-----------------------------------------------------|
E|-----------------------------------------------------|

E|-----------------------------------------------------|
B|-13p12-----------15----------------------------------|
G|-------14-14b16-----b16r14-12~-----------------------|
D|-----------------------------------------------------|
A|-----------------------------------------------------|
E|-----------------------------------------------------|


Terceiro Refrão:

G                     C9
Every rose has it's thorn
          G                     C9
Just like every night has it's dawn
          G      D                C9
Just like every cowboy sings his sad
     G
Sad song
                      C9
Every rose has it's thorn

E|-----------------------------------------------------|
B|-b17r15~~--------------------------------------------|
G|-----------------------------------------------------|
D|-----------14b16r14-12~------------------------------|
A|-----------------------------------------------------|
E|-----------------------------------------------------|

E|-----------------------------------------------------|
B|-----------------13--12---------15-------------------|
G|--------12-14p12---------14b16-----b16r14-12~--------|
D|-12h14-----------------------------------------------|
A|-----------------------------------------------------|
E|-----------------------------------------------------|

E|-----------------------------------------------------|
B|-----------------------------------------------------|
G|-14----12----12----12~~------------------------------|
D|-----------------------------------------------------|
A|-----------------------------------------------------|
E|-----------------------------------------------------|


(Final)

             G
E|-----------3------------------------------|
B|-----------3------------------------------|
G|-----------0------------------------------|
D|-------0---0------------------------------|
A|-----0-----2------------------------------|
E|-0-2-----0-3------------------------------|
exibições 126.758
Acordes para:

    0 comentários

    mostrar mais comentários

    Conseguiu tocar?

    32 tocaram 0 ainda não

    Grave um vídeo tocando Every Rose Has Its Thorn e mande pra gente!

    00:00 / 00:00
    outros vídeos desta música
    repetir qualidade Automático
    Outros vídeos desta música
    00:00 / 00:00
    Automático
    Capítulos
    • Tocando a música
    • Dicas Iniciais / Equipamentos
    • Acordes da música
    • Tocando a Introdução
    • Ritmo da música
    • Acordes da Primeira Parte
    • Tocando Primeira Parte - Solo
    • Ritmo da Primeira Parte e Refrão
    • Primeiro Solo - Parte 1 de 2
    • Primeiro Solo - Parte 2 de 2
    • Dicas 2
    • Tocando Segunda Parte e Refrão
    • Final da Segunda Parte
    • Segundo Refrão - Parte 1 de 2
    • Segundo Refrão - Parte 2 de 2
    • Acordes da Ponte
    • Tocando a Ponte
    • Ritmo da Ponte
    • Tocando o Segundo Solo
    • Solo - Parte 1 de 4
    • Solo - Parte 2 de 4
    • Solo - Parte 3 de 4
    • Solo - Parte 4 de 4
    • Tocando a Terceira Parte e Refrão
    • Terceira Parte
    • Final
    • Final (violão)
    • Encerramento
    • Ficha Técnica / Erros de Gravação
    OK