Cifra Club

Talk Dirty To Me

Poison

Cifra: Principal (violão e guitarra)
Tom: F# (forma dos acordes no tom de G) Afinação: Eb Ab Db Gb Bb Eb
Intro:

      C           D         F#   G
|-----------------------------------------|
|-----------------------------------------|   (3x)
|--5-*-5-5-5--7-*-7-7--7-11/12-12---------|
|--5-*-5-5-5--7-*-7-7--7-11/12-12---------|
|--3-*-3-3-5--5-*-5-5--5-9-/10-10---------|
|-----------------------------------------|

      G
|--------------------------------------------------------------------------|
|--------------------------------------------------------------------------|
|--------10------------------------------------12--------------------------|
|--------10------------------------------------12--------------------------|
|--------12--10--10--10--10--10---10---10--10--10--10--10--10-10-10--10----|
|--------------------------------------------------------------------------|
1. Ya know I never, I never seen you look so good   you never act the
2. Well I never, I never ever stay out late         you know that I
3. Ya know I call you, I call you on the telephone  I'm only hopin' that

              D                          C
|--------------------------------------------------------------------------|
|--------------------------------------------------------------------------|
|----------7----------------7-----7*7-----5----------------5---------------|
|----------7----------------7-----7*7-----5----------------5---------------|
|---10-10--5--5--5--5--5-5--5-5-5-5*5-5-5-3--3--3--3--3----3--3--3--3--3---|
|--------------------------------------------------------------------------|
    way you should, but I like it   and I know you like it too - the way
    hardly wait, just to see you    and I know you cannot wait, wait to
    you're home, so I can hear you  when you say those words to me, and

|----------------------------------9---------------------------------------|
|-----------------------------6-h7---6-h7----------------------------------|
|--------/--12----------------------------6--------------------------------|
|--------/--12-------------------------------------------------------------|
|--------/--10-10-10-10-10-------------------------------------------------|
|--------------------------------------------------------------------------|
      want you    I gotta have you, oh yes I do {to verse 2}
      see me too  I gotta touch you   cause baby we'll be {to chorus}
      whisper so softly   I gotta hear you   cause baby we'll be {to chorus}

Refrão:
|-------------------------------------------------------------|
|-------------------------------------------------------------|
|--5-*-5-5-5-*-7-*-7-7-7--11/12-12--11/12-12--11/12-12--12-12-|
|--5-*-5-5-5-*-7-*-7-7-7--11/12-12--11/12-12--11/12-12--12-12-|
|--3-*-3-3-3-*-5-*-5-5-5--9-/10-10--9-/10-10--9-/10-10--10-10-|
|-------------------------------------------------------------|
 at the       drive-in,  in the open porch,
 behind the bushes, till I'm screamin'

|------------------------------------------------------------------------------------|
|------------------------------------------------------------------------------------|
|----------5-*-5-5-5-*7-*-7-7-7--9-9--9---7--7---------------------------------------|
|----------5-*-5-5-5-*7-*-7-7-7--9-7--9---7--7------7-7-7-7-7-7-7-/-13---------------|
|----------3-*-3-3-3-*5-*-5-5-5--7-7--7---5--5------7-7-7-7-7-7-7-/-13---------------|
|---------------------------------------------------5-5-5-5-5-5-5-/-11---------------|
 for more,  down the basement and lock the cellar door and baby

      N.C.
|--------------------------------------------------------------------------|
|--------------------------------------------------------------------------|
|---------------------11/12-12-12-12-11/12-12------------------------------|
|---------------------11/12-12-12-12-11/12-12------------------------------|
|---------------------9-/10-10-10-10-9-/10-10------------------------------|
|--------------------------------------------------------------------------|
  talk dirty to me {1st time back to verse 3}
  talk dirty to me        C.C pick up that guitar and talk to me!! {to solo}

Solo:
|--------------|--------------|-----------------------------------|--------------|
|-5-5--3--1--0-|-5-5--3--1--0-|-12-12--10-10-8-8-7-7-5-5-3-3-2--0-|-5-5--3--1--0-|
|-5-5--4--2--0-|-5-5--4--2--0-|-12-12--11-11-9-9-7-7-5-5-4-4-2--0-|-5-5--4--2--0-|
|--------------|--------------|-----------------------------------|--------------|
|--------------|--------------|-----------------------------------|--------------|
|--------------|--------------|-----------------------------------|--------------|

|--------------|-------------------------------|----8-8---8-8---8-8---8-8--|
|-5-5--3--1--0-|-7-7--7-8-8--8-10-10--10-12-12-|----8-8---8-8---8-8---8-8--|
|-5-5--4--2--0-|-7-7--7-9-9--9-11-11--11-12-12-|-b10---b10---b10---b10-----|
|--------------|-------------------------------|---------------------------|
|--------------|-------------------------------|---------------------------|
|--------------|-------------------------------|---------------------------|

|3h2h0-----------------|-----------------------|---------------------------|
|-----3h2h0------------|-----------------------|---------------------------|
|-----------4h2h0------|4h2h0------------------|-2-2-2-4-4-4-5-5-5-6-6-6-7-|
|-----------------4h2h0|------4h2h0------------|---------------------------|
|----------------------|------------3h2h0------|---------------------------|
|----------------------|------------------3h2h0|---------------------------|

|--------------------------|-15-15-15--------------------------------------|
|--------------------------|----------15-15-15-----------------------------|
|-b14r14-12--b14r14-12--12-|-------------------12-12-12--------------------|
|--------------------------|----------------------------12-12-12-----------|
|--------------------------|-------------------------------------9-9-9-----|
|--------------------------|-----------------------------------------------|
{pre-bend and release on the 14th}                     cause baby we'll be

|-----------------------------------------|-------------------------------------------------|
|-----------------------------------------|-------------------------------------------------|
|--5-*-5-5-5-*7-*7-7-7--11/12-12----------|-5*-5-5-5*-7*-7-7-7--11/12-12-11/12-12-11/12--10-|
|--5-*-5-5-5-*7-*7-7-7--11/12-12--3times--|-5*-5-5-5*-7*-7-7-7--11/12-12-11/12-12-11/12--10-|
|--3-*-3-3-3-*5-*5-5-5--9-/10-10----------|-3*-3-3-3*-5*-5-5-7--9-/10-10-9-/10-10-9-/10--8--|
|-----------------------------------------|-------------------------------------------------|
   at the     drive-in,  in the open porch,  behind the bushes, till I'm screamin' for more more!

|-------------------------------------------------------------------------------------------|
|-------------------------------------------------------------------------------------------|
|----------5-*-5-5-5--7-7-7---9--9---------7--7---------------------------------------------|
|----------5-*-5-5-5--7-7-7---9--9---------7--7-----------7-7-7-7-7-7-7-/-13-13-13-13-13----|
|----------3-*-3-3-3--5-5-5---7--7---------5--5-----------7-7-7-7-7-7-7-/-13-13-13-13-13----|
|---------------------------------------------------------5-5-5-5-5-5-5-/-11-11-11-11-11----|
           down the basement  and lock the cellar door and baby

      N.C.
|---------------------------------------------------------------------------
|--------------------------------------------------------------------------|
|---------------------12--12-12--12-9--9-9--9-5--5-5--5-7--7-7--7-/--------|
|---------------------12--12-12--12-9--9-9--9-5--5-5--5-7--7-7--7-/--------|
|---------------------10--10-10--10-7--7-7--7-3--3-3--3-5--5-5--5-/--------|
|--------------------------------------------------------------------------|
  talk dirty to me e e e yeah                and baby talk dirty to me

                                    N.C.
|------------------------------------------------------------------------------------|
|------------------------------------------------------------------------------------|
|-12--12-12--11--10--9--7--7-7--------------------------------11/12-12---------12----|
|-12--12-12--11--10--9--7--7-7----7--7-7-/-13-----------------11/12-12-3times--12----|
|-10--10-10--9---8---7--5--5-5----7--7-7-/-13-----------------9-/10-10---------10----|
|---------------------------------5--5-5-/-11----------------------------------------|
                               and baby      talk dirty to me                 wooow!

Final:
|--------15-----------------15------------------15-----------------15------------15--18b20---18~~~----------|
|-----15----18h15-------15-----18h15--------15------18h15------15------18h15--------------------------------|
|-17b--------------17b-----------------17b-----------------17b---------------17b-------------------0~~-12/--|
|------------------------------------------------------------------------------------------------------12/--|
|------------------------------------------------------------------------------------------------------10/--|
|-----------------------------------------------------------------------------------------------------------|
exibições 58.639
Acordes para:
    Composição: Bobby Dall / Bret Michaels / C.C. DeVille / Poison Colaboração e revisão:

    0 comentários

    mostrar mais comentários

    Conseguiu tocar?

    24 tocaram 1 ainda não

    Grave um vídeo tocando Talk Dirty To Me e mande pra gente!

    00:00 / 00:00
    outros vídeos desta música
    repetir qualidade Automático
    Outros vídeos desta música
    00:00 / 00:00
    Automático
    OK