Tu És Santo

Arena Louvor

 Arena Louvor Compositor: Jhonmack
Tom: B
		
Intro:G#m E B F# (2x)

B                 F#
A gratidão em meu coração
G#m                   E
Abro os meus lábios em adoração
B                     F#
Meu redentor, meu único deus
G#m                   E
Tua vida entregastes só por amor

G#m               E
Eu me prosto, eu me rendo
B              F#
Vem toma o teu lugar
G#m               E
Faz da minha vida um altar
          B                           F#
Viver em santidade e que sempre eu possa adorar

B              F#      G#m                  E
Tu és real e hoje eu posso sentir dentro de mim
B              F#      G#m                  E
Sinto o teu sangue hoje que lava o meu ser volto a viver

Base solo (G#m E G#m F#)

Solo:

E|------------------------------------|
B|------------------------------------|
G|--/11------/11------/11-------------|
D|------9--------9--------9-9-8-------|
A|-------------------------------9----|
E|---------------------------------9--|


B                 F#
A gratidão em meu coração
G#m                   E
Abro os meus lábios em adoração
B                     F#
Meu redentor, meu único deus
G#m                   E
Tua vida entregastes só por amor

G#m               E
Eu me prosto, eu me rendo
B              F#
Vem toma o teu lugar
G#m               E
Faz da minha vida um altar
          B                           F#
Viver em santidade e que sempre eu possa adorar

B              F#      G#m                  E
Tu és real e hoje eu posso sentir dentro de mim          (2X)
B              F#      G#m                  E
Sinto o teu sangue hoje que lava o meu ser volto a viver

Base solo (G#m E B F# )(2x)

Solo

E|----------------------------------------------------------------------------|
B|-12-12-12-12-12-11-11-11-11-11/-2/4-4-4-4-4/11----11----11----11------------|
G|-----------------------------------------------11----11----11----11---------|
D|----------------------------------------------------------------------------|
A|----------------------------------------------------------------------------|
E|----------------------------------------------------------------------------|



E|----------------------------------------14----14----14-------18----18-----18-------|
B|-12-12-12-12-12-11-11-11-11-11-12-12/16----16----16----16/19----19-----19----19~---|
G|-----------------------------------------------------------------------------------|
D|-----------------------------------------------------------------------------------|
A|-----------------------------------------------------------------------------------|
E|-----------------------------------------------------------------------------------|


G#m E B F#
Tu és Santo (24x)

B              F#      G#m                  E
Tu és real e hoje eu posso sentir dentro de mim
B              F#      G#m                  E
Sinto o teu sangre hoje que lava o meu ser volto a viver

Comentários 0

Composição: Sabe quem é o compositor? Envie pra gente. Contribuição: jhonmack Correções: Kleber e mais 2 »
Exibir acordes »
publicidade
fechar