Like a Stone

Audioslave

 Audioslave
Intro - só batera 4 compassos/depois entra o baixo:

G|---------------------------------------------------|
D|------------------------------3--------------------|
A|----5-5-----5-5-----5-5-----5---5------------------|
D|-5-------5-------5-------5-------------------------|

Primeira Parte 4x:

On a cold wet afternoon, in a room full of emptiness...

G|---------------------------------------------------|
D|------------------------------3--------------------|
A|----5-5-----5-5-----5-5-----5---5------------------|
D|-5-------5-------5-------5-------------------------|

Refrão:

In your house I long to be...

G|---------------------------------------------------|
D|---------------------------------5h7-5-5-----------|
A|---------6/8----------------6/8--------------------|
D|-5--7-8-------8-5---5--5-8-------------------------|

G|---------------------------------------------------|
D|---------------------------------------------------|
A|-6--3----6/8-------5/6-----------------------------|
D|------5-------8-5-------8-5------------------------|

G|---------------------------------------------------|
D|---------------------------------------------------|
A|-4/5---------5--5-5--------------------------------|
D|------0-0-0----------------------------------------|

Intro: 

G|---------------------------------------------------|
D|-----------------------------------3---------------|
A|-----5-5------5-5------5-5-------5---5-------------|
D|-5---------5---------5---------5-------------------|

Segunda Parte 4x – igual a primeira:

On my deathbed I will pray...

G|---------------------------------------------------|
D|------------------------------3--------------------|
A|----5-5-----5-5-----5-5-----5---5------------------|
D|-5-------5-------5-------5-------------------------|

Refrão:

In your house I long to be...

G|---------------------------------------------------|
D|---------------------------------5h7-5--5----------|
A|---------6/8----------------6/8--------------------|
D|-5--7-8-------8-5---5--5-8-------------------------|

G|---------------------------------------------------|
D|---------------------------------------------------|
A|-6--3----6/8-------5/6-----------------------------|
D|------5-------8-5-------8-5------------------------|

G|---------------------------------------------------|
D|---------------------------------------------------|
A|-4/5--------5---4/5--------5-----------------------|
D|------0-0-0----------0-0-0-------------------------|

Solo:
 
G|---------------------------------------------------|
D|---------------------------------------------------|
A|------------------6/8------------------------------|
D|-5-5--7-8--8-8-8-------8-5-------------------------|

G|---------------------------------------------------|
D|---------------------------------------------------|
A|------------------6/8--10h12-10--10\---------------|
D|-5-5--7-8--8-8-8-----------------------------------|

G|---------------------------------------------------|
D|---------------------------------------------------|
A|-6-6-6-6-6-6-6-6-----------------------------------|
D|------------------5-5-5-5-5-5-5-5------------------|

G|---------------------------------------------------|
D|---------------------------------------------------|
A|-6/8-8-8-8-8-8-8-8---------------------------------|
D|--------------------5-5-5-5-5-5-5-5----------------|

G|---------------------------------------------------|
D|---------------------------------------------------|
A|-5/6-6-6-6-6-6-6-6---------------------------------|
D|--------------------5-5-5-5-5-5-5-5----------------|

G|---------------------------------------------------|
D|---------------------------------------------------|
A|-5-5-5-5-5-5-5-5-----------------------------------|
D|------------------0--------------------------------|

Terceira Parte:

For all that I've blessed, and all that I've wronged...

G|---------------------------------------------------|
D|---------------------------------------------------|
A|-6--6------5--5-6--5-6--6-3------------------------|
D|------8--8-----------------------------------------|

G|---------------------------------------------------|
D|---------------------------------------------------|
A|----------------5-5-5-5-5-5-5-5--------------------|
D|-0-0-0-0-0-0-0-------------------------------------|

Refrão:

In your house I long to be...

G|---------------------------------------------------|
D|---------------------------------------------------|
A|---------6/8---------------6/8--10h12-10--10\------|
D|-5--7-8-------8-5--5--5-8--------------------------|

G|---------------------------------------------------|
D|---------------------------------------------------|
A|-6--3----6/8-------5/6-----------------------------|
D|------5-------8-5-------8-5------------------------|


G|---------------------------------------------------|
D|---------------------------------------------------|
A|-4/5--------5---4/5-------5--6---------------------|
D|------0-0-0---------0-0-0--------------------------|

Comentários 14

  • Rafael.tune Rafael.tune: Postado em 06/10/2014 21:02

    mais facil que isso só green day

  • hudson.fernando.52 hudson.fernando.52: Postado em 01/02/2014 18:08

    Muito bom cara !! Peguei logo de primeira . :D

  • joaotostes joaotostes: Postado em 08/12/2013 02:16

    Fala Naldão, ficou ótima sua aula meu brother. Que essa parceria perdure!! Boa sorte e parabéns!!

  • DANIELLE DANIELLE: Postado em 21/11/2013 16:52

    Fica uma dica pro pessoal que mexe com edição do áudio: VAMOS FICAR ESPERTO AE POXA, ACREDITO QUE VOCÊS PODEM FAZER UM TRABALHO MELHOR VIU!

  • DANIELLE DANIELLE: Postado em 21/11/2013 16:51

    Excelente vídeo aula e performance do instrutor!!!! Agora, fica uma dica pro pessoal que mexe com edição do áudio: VAMOS FICAR ESPERTO AE PO

  • Tiago Tiago: Postado em 15/11/2013 13:07

    Tomara que agora tenha mais aulas!

  • aderson aderson: Postado em 15/11/2013 12:39

    gostei desse cara sabe ensinar

  • Rodrigo Rodrigo: Postado em 15/11/2013 11:00

    muito bom, mais onde eu consigo base de músicas sem o baixo para estudo?

  • luis.pauloleal luis.pauloleal: Postado em 14/11/2013 23:22

    Muito bom!!! #vamo q vamo

  • julianomorelo julianomorelo: Postado em 14/11/2013 20:37

    noooooosssss olha a voz do cara veii... fera memo

Exibindo 10 de 14 comentários Mostrar mais ver todos »
Composição: B. Comden / Chris Cornell / Pascal Auriat / Steven Russell
Esse não é o compositor? Avise-nos.
Contribuição: Reginaldo
  1. Domingo de Manhã - Marcos e Belutti Manteve-se 86.050 exibições
  2. Até Você Voltar - Henrique e Juliano Manteve-se 71.801 exibições
  3. Cuida Bem Dela - Henrique e Juliano Manteve-se 56.290 exibições
  4. Diz Pra Mim - Malta Manteve-se 48.760 exibições
  5. All Of Me - John Legend Manteve-se 48.574 exibições
  6. Raridade - Anderson Freire Manteve-se 39.944 exibições
  7. Nocaute - Jorge e Mateus Manteve-se 36.834 exibições
  8. Recaídas - Henrique e Juliano Manteve-se 32.803 exibições
  9. Rude - Magic! Manteve-se 30.618 exibições
  10. Só Os Loucos Sabem - Charlie Brown Jr. Manteve-se 30.429 exibições
  1. Henrique e Juliano- Manteve-se 243.958 exibições
  2. Jorge e Mateus- Manteve-se 235.772 exibições
  3. Legião Urbana- Manteve-se 182.782 exibições
  4. Charlie Brown Jr.- Manteve-se 159.997 exibições
  5. Bruno e Marrone- Manteve-se 112.759 exibições
  6. Fernandinho- Manteve-se 107.982 exibições
  7. Marcos e Belutti- Manteve-se 101.543 exibições
  8. Luan Santana- Manteve-se 92.083 exibições
  9. Malta- Manteve-se 80.903 exibições
  10. Victor e Leo- Manteve-se 80.858 exibições

Cifras e tabs

Fórum Cifra Club

Aprenda

Cifra Club News

Mais Serviços Cifra Club ID

Studio Sol

©1996 - 2014 Cifra Club · o primeiro, maior e mais acessado do Brasil · 342 mil músicas · 6.4 milhões pessoas cadastradas

publicidade
fechar