Falando Sério

Babado Novo

 Babado Novo
Tom: D
		
Solo por Eduardo Neves Belém


e|---2--5--0--2-------------------3--5--2--0-----0--5/7/5----|
B|---------------3--0----0--3-----------------3--------------|
G|---------------------2-------------------------------------|
D|-----------------------------------------------------------|
A|-----------------------------------------------------------|
E|-----------------------------------------------------------|



e|---2--5--5/7--9/10---12--12/14--12--10--12--10-------------|
B|------------------------------------------------14---12----|
G|-----------------------------------------------------------|
D|-----------------------------------------------------------|
A|-----------------------------------------------------------|
E|-----------------------------------------------------------|



e|------------7-----7--10-----10--12--15---------------------|
B|---8-----8-----8---------8---------------------------------|
G|------6----------------------------------------------------|
D|-----------------------------------------------------------|
A|-----------------------------------------------------------|
E|-----------------------------------------------------------|


Asus     D D7M   D   D7M            
Falando sério
                   Em     
É bem melhor você parar com
        A        Em  A
 essas coisas
     Em                 
De olhar pra mim com 
                A7
 olhos de promessa
  D            D#º     Em      A7
Depois sorrir como quem nada quer
          D D7M   D  D7M  
Você não sabe
                        Em
Mas é que eu tenho cicatrizes 
            A    Em    A    
Que a vida fez
         Em             A7
E tenho medo de fazer planos
    D                    D7
De tentar e sofrer outra vez

           G   Gm
Falando sério                          |


                      F#m
Eu não queria ter você                 |


                   Bsus B7
 por um programa                       |

                   Em              A7
E apenas ser mais uma em sua cama      |
                        D         D7       
Por uma noite apenas e nada mais       |

         G       Gm                 2ª PARTE  
Falando serio                          |


                             F#m
Entre nós dois tinha de haver          |


                  Bsus B7
 mais sentimento                       |

                 Em                  A7
Não quero o seu amor por um momento    |
                     D                
E ter a vida inteira pra me arrepender |


Obs.: REPETE A MUSICA TODA DUAS VEZES...
      DEPOIS REPETE A 2ª PARTE DUAS VEZES.
101.145 exibições

Comentários 1

Composição: H. Nevada / Joey Pastrana / K. Winger / Lee McCutcheon
Esse não é o compositor? Avise-nos.
Contribuição: _MoNiQuE_ Correções: Marcão e mais 1 »
Exibir acordes »
publicidade
fechar