A Thousand Years

Boyce Avenue

 Boyce Avenue Compositor: Christina Perri, David Hodges
Tom: G
Afinação: D G C F A D
		
Indrodução:


D|---------------------3-2-------------------------------------|
A|---3----3--------3-------1-----0-----------0-----3-----------|
F|----0----0h2-2----0-----------0------0---0h2---5-4-2--0------|
C|--0----0-0--0---0------0-----2---------2-------0---0----4-0--|
G|---------------------------3---------3-----------------------|
D|-3----3--2-----0-----0---------------------------------------|


C9
Heart beats fast
             G/B
Colors and promises
            Em7
How to be brave
           D/F#     G5      C9
How can I love when I'm afraid to fall
                   G/B
But watching you stand alone
           Em7            D/F#  G5    Am7
All of my doubt suddenly goes away somehow

  Am7(9)      Em7    D9/F#
One step closer

G                             D/F#
I have died everyday waiting for you
Em7                                D
Darling don't be afraid I have loved you
      C9
For a thousand years
                 D4    D
I love you for a thousand more

Passagem


     C9
D|-3--------2--------0--------------------|
A|--3-3------3-3-------3-3----------------|
F|---0-0------0-0-------0-0-0h2-4-2p0-----|
C|-----------------------------------2p0--|
G|-3--------3--------3--------------------|
D|----------------------------------------|


C9
Time stands still
          G/B
Beauty in all she is
            Em7
I will be brave
            D9/F#   G5   C9
I will not let anything take away
                     G/B
What's standing in front of me
        Em7
Every breath
       D9/F#         G5  Am7
Every hour has come to this

     Am7(9)    Em    D9
One step closer

G                             D/F#
I have died everyday waiting for you
Em7                                D
Darling don't be afraid I have loved you
      C9
For a thousand years
                 D4    D
I love you for a thousand more

   G                             D/F#
And all along I believed I would find you
 Em7
Time has brought your heart to me
        D9                  C9
I have loved you for a thousand years
                      D4     D
I love you for a thousand more


      D           Am (2x)            Em                 D
D|-3p2--------|------------------|------------------|---------|
A|-----3h0--0-|----1------1------|----0-------0-----|----3----|
F|---------2--|--2--2---2--2-----|--0---0---0---0---|--2---2--|
C|-0----------|------------------|------------------|---------|
G|------------|-0-0----0-0-------|------------------|-0-0-0---|
D|------------|------------------|-0-0-0---0-0-0----|---------|


Am7            Em      D
    One step clo______ser

Am7            Em      D
    One step clo______ser

G                             D/F#
I have died everyday waiting for you
Em7                                D
Darling don't be afraid I have loved you
      C9
For a thousand years
                 D4    D
I love you for a thousand more


D|-0---------------|
A|-3---------------|
F|-0----2\4/2p0----|
C|-4-----------2p0-|
G|-5---------------|
D|-x---------------|


   G                             D/F#
And all along I believed I would find you
 Em7
Time has brought your heart to me
        D9/                 C9
I have loved you for a thousand years
                      D4     D
I love you for a thousand more

Am7            Em      D
    One step clo______ser

Am7            Em      D    C9
    One step clo______ser


     Am (2x)            Em                 D                    C9
D|------------------|------------------|-------------------|---3----|
G|----1------1------|----0-------0-----|----3--------3-----|---3----|
F|--2--2---2--2-----|--0---0---0---0---|--2---2----2---2---|---0----|
C|------------------|------------------|-------------------|---2----|
G|-0-0----0-0-------|------------------|-0-0-0----0-0-0----|---3----|
D|------------------|-0-0-0---0-0-0----|-------------------|--------|

Comentários 10

  • antonio agostinho dos santos neto antonio agostinho dos santos neto: Postado em 14/12/2014 15:06

    QUEM PUDER MANDA A CIFRA MAIS SIMPLES

  • zemizim zemizim: Postado em 27/03/2014 19:49

    Desgraçado mudou minha cifra que tava perfeita, demorei semanas pra sacar os arranjos ai vem um vadio e coloca a cifra de outros sites!!!!!

    • Vinicius.R.F.M Vinicius.R.F.M: Postado em 10/05/2014 22:17

      ooo man tb achei essa ai escrota...se vc poder me mandar agradeço....

    • zemizim zemizim: Postado em 24/05/2014 14:54

      Pode deixar vou colocar

    • Técio Técio: Postado em 07/06/2014 13:29

      Ei mano... manda aí pra mim tbm... essa aqui tá horrível

    • luiz.americo1978 luiz.americo1978: Postado em 13/06/2014 15:25

      manda por gentileza para mim também. Valeu! Estou iniciando aprendizado e é sempre bem vindo. Abraços

    • alexozzy alexozzy: Postado em 21/06/2014 12:51

      se possivel manda mande-me também !

    • Luiz Gustavo Luiz Gustavo: Postado em 13/12/2014 16:59

      Comentário removido

    • bruninho.h bruninho.h: Postado em 16/12/2014 22:41

      Comentário removido

  • Bruna Bruna: Postado em 25/10/2013 23:20

    perfeitaa *- * agora só falta aprender a tocar :P

Composição: Sabe quem é o compositor? Envie pra gente. Contribuição: zemizim Correções: Vagner »
Exibir acordes »
publicidade
fechar