David Quinlan

Agnus Dei

492.052 exibições
Tom: C

E|-----------------------------------------------------------------------------|
B|--------------10--------------------10--12--12/13--13-12-13-12-10-12-10--10--|
G|--5/9--10--12---12-------5/9--10—12--------------------------------------9---|
D|-------------------12--------------------------------------------------------|
A|-----------------------------------------------------------------------------|
E|-----------------------------------------------------------------------------|


E|---------------------------------------------------------------------------------------|
B|---------------10---------------------------10--12--12/13--13-12-13-12-10-12-10----10--|
G|--5/9--10--12-----12-12----5-9--10—12---------------------------------------------9----|
D|---------------------------------------------------------------------------------------|
A|---------------------------------------------------------------------------------------|
E|---------------------------------------------------------------------------------------|


E|-------------------------------------------------------------------12---------------------------------------|
B|---------------10--------------------10--12--12/13--13-13/14-14b---14~~-14-13-12--14~--12-14-15-14~-14--12-12--14-14-|
G|--8/12--13--15-----15-----8/12--13--15------------------------------------------------------------------------|
D|------------------------------------------------------------------------------------------------------------|
A|------------------------------------------------------------------------------------------------------------|
E|------------------------------------------------------------------------------------------------------------|


-----------------------------------------------------------12-------------------------------------------|
---16-15-12-10-10---16-15-12-10-10--12-14/15\14-14b---14~~-14-13-12--14~--14-14-15-14~-14--12-12--14-14-|
--------------------------------------------------------------------------------------------------------|
--------------------------------------------------------------------------------------------------------|
--------------------------------------------------------------------------------------------------------|
--------------------------------------------------------------------------------------------------------|


E|-------------------------------------------------|
B|--16-15-12-10-10---16-15-12-10--12-14/15\14/11~--|
G|-------------------------------------------------|
D|-------------------------------------------------|
A|-------------------------------------------------|
E|-------------------------------------------------|


      C    F C
A|-a-leluia!

    C F   C   Dm  Em   F
A|- a - le - lu - u - ia
F                         C
Poderoso é o Senhor nosso Deus

       C   F C
A|-a-leluia!

    C F   C   Dm  Em   F
A|- a - le - lu - u-u - ia
F                         C
Poderoso é o Senhor nosso Deus
    C F   C   Dm  Em    F
A|- a - le - lu - u-u - ia

         C       F      C
Sa - an - to, sa - an - to,
F      C            Am7  G
É o Senhor Deus, podero-so
Dm                           F
Digno de louvor, digno de louvor
F  G  Am   C   F  C
Tu és san-to, san-to...   
F      C            Am7  G
É o Senhor Deus, podero-so
Dm                F
Digno de louvor, digno de louvor
  F G Am Bm   C
A|- a- a - mém.
    Composição: Michael W. SmithColaboração e revisão:
    • Ernesto
    • nicole
    • Daniel
    • naathgomes
    • +12

    Comentários 11

    140 .
    • Arthur Arthur: Em 01/12/2015 18:10

      a notas estão todas erradas

    • Arthur Arthur: Em 04/09/2015 11:41

      eu quero as notas da primeira parte onde so tem os numeros

    • charlinhocaruaru charlinhocaruaru: Em 30/07/2015 10:08

      falta a primeira parte na tablatura

    • adivan.vitorino adivan.vitorino: Em 08/11/2014 15:02

      bela musica...

    • alivatemartins alivatemartins: Em 15/07/2014 16:53

      Muiito liinda' canção riquissíma!

    • danillo.alves.7798 danillo.alves.7798: Em 17/12/2013 15:21

      A facil Quero o solo

      • EduardoC78 EduardoC78: Em 21/01/2014 00:34

        Quando consiguir me avisa quero também..

      • Izabela Izabela: Em 12/01/2015 17:25

        Se Quiser eu te do as notas !!

    • viny.w viny.w: Em 16/07/2012 14:24

      Amenn musica Lindaa

    • mendesfabio1995 mendesfabio1995: Em 23/02/2012 10:23

      Glorificado seja o nome do Senhor por esse hino,esse hino diz q o Senhor és Digno de Louvor e ele é Santo e ele é poderoso é o nosso Sen

    140 cancelar

    conseguiu tocar?

    • Luis Felipe
    • Arthur
    • Stefani
    • martin.lofrano.1
    • raphaela.castro.54
    • ADILSON ALVES THEODORO
    • naathgomes
    • •••
    Jhonathan Granater1.580 visualizações
      ver covers de outras músicas »
      0:00 / 0:00

      Capítulos

        1 versão de gaita exibições contribuição e correção
        play/pausefechar subir/descer velocidade
        6ª corda E5ª corda A4ª corda D3ª corda G2ª corda B1ª corda E
          acordes
          publicidad
          fechar
          ok