David Quinlan

Agnus Dei

400.396 exibições
Tom: G

E|----------------------------------------------------------------------|
B|--------------7----------------------7--9--9/10--10-9-10-9-7-9-7---7--|
G|--2/6--7--9---9-------2/6--7—9------------------------------------9---|
D|-------------------0--------------------------------------------------|
A|----------------------------------------------------------------------|
E|----------------------------------------------------------------------|


E|-----------------------------------------------------------------------|
B|---------------7---------------------7--9--9/10--10-9-10-9-7-9-7----7--|
G|--2/6--7--9----9-9----2/6--7—9------------------------------------9----|
D|-----------------------------------------------------------------------|
A|-----------------------------------------------------------------------|
E|-----------------------------------------------------------------------|


E|--------------------------------------------------------------------9---------------------------------------|
B|---------------7-------------------7--9--9/10--10-10/11-11b---11~~-11-10-9--11~--9-11-12-11~-11--9-9--11-11-|
G|--2/6--7--9----9-----2/6--7--9------------------------------------------------------------------------------|
D|------------------------------------------------------------------------------------------------------------|
A|------------------------------------------------------------------------------------------------------------|
E|------------------------------------------------------------------------------------------------------------|


----------------------------------------------------------9----------------------------------|
---13-12-9-7-7---13-12-9-7-7--9-11/12\11-11b---11~~-11-10-9--11~--9-11-12-11~-11--9-9--11-11-|
---------------------------------------------------------------------------------------------|
---------------------------------------------------------------------------------------------|
---------------------------------------------------------------------------------------------|
---------------------------------------------------------------------------------------------|


E|---------------------------------------------|
B|--13-12-9-7-7---13-12-9-7-7--9-11/12\11/11~--|
G|---------------------------------------------|
D|---------------------------------------------|
A|---------------------------------------------|
E|---------------------------------------------|


    G    C G
A|-a-leluia!

  G           C
A|- a - le - lu - u - ia
C                         G
Poderoso é o Senhor nosso Deus

     G   C G
A|-a-leluia!

  G            C
A|- a - le - lu - u-u - ia
C                         G
Poderoso é o Senhor nosso Deus
  G            C
A|- a - le - lu - u-u - ia

         G       C      G
Sa - an - to, sa - an - to,
C      G    Em7          D
É o Senhor Deus, podero-so
C                C
Digno de louvor, digno de louvor
C        G    C    G
Tu és san-to, san-to...
C      G    Em7          D
É o Senhor Deus, podero-so
C                C
Digno de louvor, digno de louvor
C   G
Amém.
    Composição: Michael W. SmithColaboração e revisão:
    • nicole
    • Daniel
    • naathgomes
    • tw.
    • +11

    Comentários 8

    • adivan.vitorino adivan.vitorino: Postado em 08/11/2014 15:02

      bela musica...

    • alivatemartins alivatemartins: Postado em 15/07/2014 16:53

      Muiito liinda' canção riquissíma!

    • danillo.alves.7798 danillo.alves.7798: Postado em 17/12/2013 15:21

      A facil Quero o solo

      • EduardoC78 EduardoC78: Postado em 21/01/2014 00:34

        Quando consiguir me avisa quero também..

      • Izabela Izabela: Postado em 12/01/2015 17:25

        Se Quiser eu te do as notas !!

    • viny.w viny.w: Postado em 16/07/2012 14:24

      Amenn musica Lindaa

    • mendesfabio1995 mendesfabio1995: Postado em 23/02/2012 10:23

      Glorificado seja o nome do Senhor por esse hino,esse hino diz q o Senhor és Digno de Louvor e ele é Santo e ele é poderoso é o nosso Sen

    conseguiu tocar?

    • Stefani
    • martin.lofrano.1
    • raphaela.castro.54
    • ADILSON ALVES THEODORO
    • naathgomes
    • maicon.goncalves.9212
    • Rayssa
    • •••
    Jhonathan Granater1.376 visualizações
      ver covers de outras músicas »
      0:00 / 0:00

      Capítulos

        1 versão de gaitaexibiçõescontribuição e correção
        play/pausefechar subir/descer velocidade
        6ª corda E5ª corda A4ª corda D3ª corda G2ª corda B1ª corda E
          acordes
          publicidad
          fechar
          ok