Geração Que Dança

David Quinlan

 David Quinlan
Tom: G
		
Intro: D5 D5 C5 G5 (2x)

Riff de Intro:

E|-------------------------------------------------|
B|-------------------------------------------------|
G|-------------------------------------------------|2x
D|---------------------3~--------------------------|
A|-5-3-5--5-3-5--5-3-5-----------------------------|
E|-------------------------7-5-7--7-5-7--7-5-7--1~-|


Primeira Parte:
   D5
A Tua graça nos faz dançar         
     B5
Com toda a força celebrar
      G5	       D5
Dançaremos gratos por teu amor

Riff 01:

E|----------------------|
B|----------------------|
G|-------------------7--|
D|-------------------7--|
A|-0-2-3--3-2-0------5--|
E|--------------3~------|


Segunda Parte:
   D5
A Tua glória nos faz cantar
     B5
por toda terra  te exaltar
      G5	      D5
cantaremos glórias a ti, Senhor

Pré-Refrão:
      E5
É o transbordar
         F#5
por nos perdoar
        G5
por te conhecer
       A5
não podemos nos calar

Refrão:
     D5
E seremos a geração que dança
      E5			  G5
por causa da tua misericórdia, ó Deus
		     D5  (Riff 01)
Tua misericórdia, ó Deus
     D5
E seremos a geração que canta
E5			       G5
e que celebra a Tua glória, ó Deus
		 D5
a Tua glória, ó Deus

Comentários 4

Composição: MATT REDMAN (versão:David Quinlan)
Esse não é o compositor? Avise-nos.
Contribuição: Cassio Correções: mike.stonogamachado , Anderson e mais 6 »
Exibir acordes »
publicidade
fechar