Flight Of The Rat

Deep Purple

 Deep Purple
Tom: A
		
 
A          A        A      A G D  <-- Chord Progression 1 (CP1) 
 
Spread the word around 
 
 
 
A          A        A      A G D 
 
The rat is leaving town 
 
 
 
A         A        A      A G D 
 
The message is a song 
 
 
 
A      A       A      A G D 
 
The misery is gone 
 
 
Once I had a dream 
To sing before the queen 
She didn't want to know 
She wouldn't see the show  
E     E    E     E   D   A     <-- Chord Prograssion 2 (CP2) 
 
               What a fright 
 
 
 
E     E    E     E       D     A 
 
               I couldn't do it right 
 
 
 
E     E    E     E     D    A 
 
               Oh what a night 
 
The part beetween verses 

E|---------------------------------------------------------------------| 
B|---------------------------------------------------------------------| 
G|---------------------------------------------------------------------| 
D|--------------4------5-------7------5------7------9------7------9----| 
A|--0-4-7--0--5---0--7----0--9---0--7---0--9---0-10---0--9---0-10---0--| 
E|---------------------------------------------------------------------| 

 

E|---------------------------------------------------------------------| 
B|---------------------------------------------------------------------| 
G|----6-7-8-9~~~~~-7h9p7h9p7h9-----------------------------------------| 
D|--7------------------------------------------------------------------| 
A|---------------------------------------------------------------------| 
E|---------------------------------------------------------------------| 

 
Mystic demons fly 
All about the sky 
With memories of a clown 
The saddest show in town  
 
When I was seventeen 
Me mother said to me 
Be careful what you touch 
You shouldn't take so much  
 
I blew my mind 
She was so kind 
I could have cried  
B  B  B     B A G#     <--Chord Progression 3 (CP3) 
 
In my mind 
 
 
 
B  B      B     B A G# 
 
I had to find 
 
 
 
B        B     B      B A G# 
 
A kind of new way 
 
 
 
B        B      B     B A G# 
 
Of being oh so cool 
 
 
 
B       B      B     B A G# 
 
Like a blue blooded 
 
 
 
B     B     B     B A G# 
 
Well studded 
 
 
 
B    B   B      B A G# 
 
English fool 
 
(Solo)  
Speak about the past 
Times are changing fast 
Once I was so weak 
I couldn't even speak  
 
Shaking put a curse 
Nothing could be worse 
Walking through the door 
Who could ask for more  
  
Now I'm free 
And I can see 
That I am me  
 
Spread the word around 
The rat is leaving town 
The message is a song 
The misery is gone  
 
Shaking out a curse 
Nothing could be worse 
Walking through the door 
Who could ask for more  
 
Now I'm free 
And I can see 
That I am me  
Please stay away

Comentários 0

Composição: Carlos Caetano / Deep Purple / Ferrugem / Ian Gillan / Ian Paice / James Hetfield / Jon Lord / Lucas / R. J. Lange / Ritchie Blackmore / Robbie Williams / Roger Glover / Shellback
Esse não é o compositor? Avise-nos.
Contribuição: diablo
Consegui tocarAinda não conseguiram tocar essa música. Seja o primeiro!
    Não consegui tocar
    Exibir acordes »
    publicidade
    fechar