Soldier Of Fortune

Deep Purple

 Deep Purple
Tom: A#
		
INTRO:

E|---------3--5--6/10--8h10p8---------------------|
B|-------3--------------------11-11h13p11---------|
G|-----3----------------------------------12--14--|
D|---5--------------------------------------------|
A|------------------------------------------------|
E|------------------------------------------------|



E|---8--------------------------------------------|
B|---8--11--13p10--------------11p10--------------|
G|---9-------------12--10--12--------12-----------|
D|---10-------------------------------------------|
A|---10-------------------------------------------|
E|---9--------------------------------------------|


        Gm
I have often told you stories
F
about the way
   Gm
I lived the life of a drifter
Dm
Waiting for the day
          Gm
When I'd take your hand and sing you songs
      F
Then maybe you would say
Gm
Come lay with me and love me
Dm
  And I would surely stay
Bb       C                Gm
  But I feel I'm growing older
Eb            F                Bb
  And the songs that I have sung
  D7             Gm
  Echo in the distance
             F
  Like the sound
        Bb              Eb
  Of a windmill going round
  Cm                 Dm
  Guess I'll always be
                Gm
  A soldier of fortune

Solo:

E|-------------------------------------------------|
B|-------------------------------------------------|
G|-------------10----10/12-------10/12-------------|
D|---------12--------------------------------------|
A|-------------------------------------------------|
E|-------------------------------------------------|



E|-------------------------------------------------|
B|-----------11—11/13-------11/13------------------|
G|---12--------------------------------------------|
D|-------------------------------------------------|
A|-------------------------------------------------|
E|-------------------------------------------------|



E|-----------13----13/15------13/15----------------|
B|-----15------------------------------------------|
G|-------------------------------------------------|
D|-------------------------------------------------|
A|-------------------------------------------------|
E|-------------------------------------------------|



E|-------------------------------------------------|
B|--15b------11----------13------------------------|
G|-------------------------------------------------|
D|-------------------------------------------------|
A|-------------------------------------------------|
E|-------------------------------------------------|



E|---------13----13/15---13/15---------------------|
B|----15-------------------------------------------|
G|-------------------------------------------------|
A|-------------------------------------------------|
D|-------------------------------------------------|
E|-------------------------------------------------|



E|-------------------------------------------------|
B|-15b----11---13/15---13/15-----------------------|
G|-------------------------------------------------|
A|-------------------------------------------------|
D|-------------------------------------------------|
E|-------------------------------------------------|



E|-------------------------------------------------|
B|-----15b-----11----13-----11/10----11/10---------|
G|-------------------------------------------12----|
D|-------------------------------------------------|
A|-------------------------------------------------|
E|-------------------------------------------------|


        Gm
Many times I've been a traveller
F
I looked for something new
   Gm
In days of old when nights were cold
Dm
I wandered without you
   Gm
But those days I thought my eyes
      F
Had seen you standing near
Gm
Though blindness is confusing
Dm
It shows that you're not here

Bb       C                Gm
  But I feel I'm growing older
Eb            F                Bb
  And the songs that I have sung
  D7           Gm
  Echo in the distance
             F
  Like the sound
        Bb              Eb
  Of a windmill going round
  Cm                 Dm
  Guess I'll always be
                Gm
  A soldier of fortune

       Bb             F
  Yes, I can hear the sound
        Bb             Eb
  Of a windmill going round
     Cm               Dm
  I guess I'll always be
                Gm
  A soldier of fortune.
     Eb               Dm
  I guess I'll always be
                G
  A soldier of fortune

Comentários 3

  • Enrique Enrique: Postado em 16/06/2013 20:15

    Os solos aparecem na SIMPLIFICADA. Abrçs.

  • jimmyslash jimmyslash: Postado em 10/07/2012 22:18

    cade o solinho da intro logo o principal naum tem

  • jhonatan.slash jhonatan.slash: Postado em 07/02/2012 10:14

    coloca pelo menos o solo da introdução aí

Composição: Desconhecido
Esse não é o compositor? Avise-nos.
Contribuição: lucianofcavalcante@yahoo.com.br Correções: tiagodearaujoneves e mais 2 »
Exibir acordes »
publicidade
fechar