Meu filho, não temas

Diante do Trono

 Diante do Trono
Tom: C
		
Intro: F  C  G  Am  F  C  G
Violão:

E|-------------------------------------------------------------|
B|--6-6-6h8-5------5-3--5/8-5---5-6-8-6/8---------5--8--6-4h6--|
G|--7-7---------5-7---------------------5-5--5--7--------------|
D|-------------------------------------------------------------|
A|-------------------------------------------------------------|
E|-------------------------------------------------------------|


Guitarra:

E|-------------------------------------------------------------|
B|-6-6-6h8-5-----5--3--5/8--5--5-6-8-6/8----------5--8--6-5--3-|
G|-----------5-7-------------------------5-5--5-7--------------|
D|-------------------------------------------------------------|
A|-------------------------------------------------------------|
E|-------------------------------------------------------------|



               F          C
Quando estou pronto a desistir
          F              C
Pensando que cheguei ao fim
       G        Am
A tua mão me sustenta
       G      Am
A tua voz me orienta
              F                     G
Dizendo: não temas! meu filho, não temas!
      F                        G      F C G
Não temas!    meu filho, não temas!

         C     G
Eu te levanto
       F
Eu te ajudo
        Am
Te fortaleço
     G           F
Meu filho, não temas!
          C  G
Eu te levanto
        F
Eu te ajudo
        Am
Te fortaleço
      G           F
Meu filho, não temas!
68.357 exibições

Comentários 0

Composição: Sabe quem é o compositor? Envie pra gente. Contribuição: Beto Correções: alefecosendey e mais 2 »
Exibir acordes »
publicidade
fechar