Edson e Hudson

Hoje Eu Posso Chorar

67.444 exibições
Tom: C
(Henrique Marx e Flavinho)

BASE DA INTRO: F C G F C G
SOLO INTRO 

E|----------------------------------|   
B|----------------------------------|
G|----------5---------5-------------| 2X
D|-------7---------7----------------|
A|-5-7-8-------7-----------5--------|
E|----------------------------------|


PARTE 1 PALM MUTE
      C       Am
Tudo bem, tô aqui
      F                  G
Tão sozinho não tenho ninguém
       C          Am
Vou chorar, vai doer
       F              G
Mas só volto amar, se for pra valer

REFRÃO
                 C 
Hoje eu posso chorar
                              Em
Mas aos poucos eu vou te esquecendo
                         F
Esse amor me feriu, tá doendo
    Dm                    G
Coração não deixou de te amar
                 C 
Hoje eu posso chorar
                        Em
E você ri dos meus sentimentos
                         F
Essa dor vai curar com o tempo
       Dm                G    F
E quem ri um dia pode chorar
              C
Por querer voltar


SOLO  C Em F Dm G
D|---------5------------------5-------------------7-------------------------------|
A|-7~--5-7---7--7-5---7~--5-7---7--7-5---8~--8-10---10-8-10-8-7-8-7--8p7p5--------|
E|------------------7------------------7------------------------------------7p5p3-|


PARTE1 DEDILHADA

REFRÃO 1 VEZ

REFRÃO 1 VEZ, MAS MEIO TOM À CIMA

FINAL

E|---------------------|
B|---------------------|
G|-----------6---------|
D|---------8-----------|
A|-6-8-9-------8--6----|
E|------------------9~-|



Obs.: Nos refrões enquanto o Edson toca o violão o Hudson toca as mesmas notas porém em Power Acorde
 alternando entre solto e abafado ! OOOOOOO módão apaixonado !!!!!!
    Composição: Henrique Marx e FlavinhoColaboração e revisão:
    • Flávio Obara
    • eastwood
    • Decko

    Comentários 0

    conseguiu tocar?

    • lindissythais

    covers

    Grave um vídeo tocando Hoje Eu Posso Chorar e mande pra gente!

    Ex.: http://www.youtube.com/watch?v=0IvSvIwGdwk
    ver covers de outras músicas »
    0:00 / 0:00

    Capítulos

      1 versão de violãodificuldadeexibiçõescontribuição e correção
      1 versão de guitarradificuldadeexibiçõescontribuição e correção
      1 versão de cavacodificuldadeexibiçõescontribuição e correção
      1 versão de tecladodificuldadeexibiçõescontribuição e correção
      play/pausefechar subir/descer velocidade
      6ª corda E5ª corda A4ª corda D3ª corda G2ª corda B1ª corda E
        Exibir acordes
        Feedback
        publicidad
        fechar
        ok