Fé Nenhuma

Engenheiros do Hawaii

 Engenheiros do Hawaii
(intro)
G--------------------------------------------------
D-5-4----(...)-5-4----(...)--555444----(...)-5-4---
A-----2------------2---------------22------------2-
E--------------------------------------------------

 (refrao)
G--------------------------
D-------------2-2-2-55-4-2-
A-2-2-2-5-5-5--------------
E--------------------------

 (verso 1)
G------------------
D------------------
A-00-000-000-0-2-4-
E------------------

 (verso 2)
G------------------
D------------0-2---
A-22-222-222-------
E------------------

 (verso)
G-------------------------------------------------------------------
D------------------------------5-7------------------------------7-5-
A-(verso 1 3x)-00-0000-0000-00-----(verso 2 3x)-22-2222-2222-22-----
E-------------------------------------------------------------------

 musica:
G----------------------------------------------------------------------------------
D----------------------------------------------------------------------------------
A------------------------------------0-------------------------------0-------------
E-(intro/refrao 6x/verso/verso 1 3x)----(refrao 6x/verso/verso 1 3x)---(refrao 8x)-



_______________________________________________________
Contribuição: Denis Eduardo(denispslima@ig.com.br)
3.613 exibições

Comentários 0

Composição: Gessinger
Esse não é o compositor? Avise-nos.
Consegui tocarAinda não conseguiram tocar essa música. Seja o primeiro!
    Não consegui tocar
    publicidade
    fechar