Introdução:

G-----------------------------------------------------------------|
D-----------------------------------------------------------------|
A----5--------5---------------------------------------------------|
E------------5----------------------------------------------------|

Não, eu não posso negar
Não adianta disfarçar
Agora você me prensou contra a parede

G-----------------------------------------------------------------|
D-----------------------------------------------------------------|
A-----5-------5-5-------------------------------------------------|
E------------5----------------------------------------------------|

Eu não passava por aí por acaso
Não, eu não olhava pra você por acaso

G--------------77777777-------------------------------------------|
D-----------------------------------------------------------------|
A----55555555-----------------------------------------------------|
E-----------------------------------------------------------------|

Eu sempre quis você
Se eu não me fiz entender

G-----------------------------------------------------------------|
D-----------------------------------------------------------------|
A-----5--55-------------555-3-------5---55-------------555-5------|
E-------5-----3--5----5-------5-3-----5-----3---5----5-------5--3-|

Não foi por mal
Não foi por nada
Nada foi por acaso

G-----------------------------------------------------------------|
D-----------------------------------------------------------------|
A-----5--55-------------5-----------------------------------------|
E-------5-----3--5---3--------------------------------------------|
                    
Tudo que já fizemos juntos
E o que deixamos de fazer
Desaba alta madrugada         
Nada faz a menor diferença               
Quando a gente pensa no que ainda pode ser

G--------------77777777-------------------------------------------|
D-----------------------------------------------------------------|
A----55555555-----------------------------------------------------|
E-----------------------------------------------------------------|
           
Se eu não te fiz entender         
Que era feliz com você

G-----------------------------------------------------------------|
D-----------------------------------------------------------------|
A-----5--55-------------555-3-------5---55-------------555-5------|
E-------5-----3--5----5-------5-3-----5-----3---5----5-------5--3-|

Não foi por mal
Não foi por nada
Nada foi por acaso

G-----------------------------------------------------------------|
D-----------------------------------------------------------------|
A-----5--55-------------------------------------------------------|
E-------5-----3--5---3--55555555----------------------------------|

Da janela do avião eu vejo Porto Alegre

G-----------------------------------------------------------------|
D-----------------------------------------------------------------|
A--------------3--------------------5--55----5---55---------------|
E----0--------------------------------5--------5------------------|

Vejo o futuro em flash-back

G-----------------------------------------------------------------|
D-----------------------------------------------------------------|
A--------------3-------5--55--5----5-3--5-3-----------------------|
E----0-------------------5----------------------------------------|

Meu pai, minha filha, nossa casa

G-----------------------------------------------------------------|
D-----------------------------------------------------------------|
A--------------3--------------------5--55----5---55---------------|
E----0--------------------------------5---------5-----------------|

Da janela do avião eu vejo por acaso

G-----------------------------------------------------------------|
D-----------------------------------------------------------------|
A--------------3--------------------5--55--5--5-5-3---------------|
E----0--------------------------------5------5--------------------|

O nosso caminho, moinhos de vento
Glória, independência, a nossa redenção

G-----------------------------------------------------------------|
D---------------------------------------5--7-5----5--7--5---------|
A--------------3--------------------5--5-------5-5--------5-------|
E----0--------------------------------5---------5-----------------|

Vejo da janela do avião

G-----------------------------------------------------------------|
D-----------------------------------------------------------------|
A--------------333333----555555-----------------------------------|
E----000000-------------------------------------------------------|
           
Eu sempre quis voltar

G-----------------------------------------------------------------|
D------------------55-7-5-----------------------------------------|
A---------3----5--5------7--5-------------------------------------|
E-----3-----------------------7-5--3------------------------------|

Eu sempre quis você
G-----------------------------------------------------------------|
D------------------55-7-5-----------------------------------------|
A---------3----5--5------7--5-------------------------------------|
E-----3-----------------------7-5--3------------------------------|

Um dia eu quis tudo

G-----------------------------------------------------------------|
D-----------------------------------------------------------------|
A-------------3--33----5--55--------------------------------------|
E----3--033-----3--------5----------------------------------------|

Tudo estava aqui
Por aí
Porto Alegre por acaso

G-----------------------------------------------------------------|
D-----------------------------------------------------------------|
A---3-3-3-3-----5-5-5-5-------------------------------------------|
E-------------------------0-0-0-0--1-1-1-1--1-1-1-1----3----------|
4.394 exibições

Comentários 0

Composição: Humberto Gessinger
Esse não é o compositor? Avise-nos.
Contribuição: Pandur
publicidade
fechar