Emanuel

Fernandinho

 Fernandinho
Tom: E
		

E|--------------------------------------------------|
B|--------------------------------------------------|
G|--------------------------------------------------|
D|----6-7-6---6-7-----------------------------------|
A|7--------7---------------------------------------|
E|--------------------------------------------------|



E|--------------------------------------------------|
B|--------------------------999----9--101010----10--|
G|999----9--111111-----11------999--9--------999---9|
D|---999--9--------999---9--------------------------|
A|--------------------------------------------------|
E|--------------------------------------------------|



E|--------------------------------------------------|
B|9-9-9-9-10-9--------------------------------------|
G|-9-9-9--------------------------------------------|(3x)
D|--------------------------------------------------|
A|--------------------------------------------------|
E|--------------------------------------------------|



E|--------------------------------------------------|
B|9-9-9-9-10-9--------------------------------------|
G|-9-9-9------9~------------------------------------|
D|--------------------------------------------------|
A|--------------------------------------------------|
E|--------------------------------------------------|


Base Intro: E B C#m A

E              B                  C#m A
Deixou a Sua glória para estar comigo
E             B                C#m  A
Morreu numa cruz para estar comigo
E         B               G#m   A
Venceu o diabo para estar comigo
E          B               ( E  B D A )
O véu se rasgou para estar comigo

       E              B
Maravilhoso, Conselheiro, Deus forte
G#m          A
Príncipe da paz
       E              B
Maravilhoso, Conselheiro, Deus forte
G#m          A
Príncipe da paz
       E              B
Maravilhoso, Conselheiro, Deus forte
G#m         A
Príncipe da paz
       E              B
Maravilhoso, Conselheiro, Deus forte
G#m         A
Príncipe da paz

E        B        G#m  A
Emanuel, Emanuel, Emanuel

Base Solo: E B C#m A
Texto Colunas
Alterar tom ½ tom ½ tom
afinação acordes na letra esconder tabs mais »
×

Comentários (22)

  • baduco baduco: Postado em 26/07/2012 10:37

    nas primeiras duas frases usa c#m e na introdução blz galera

    • baduco baduco: Postado em 26/07/2012 10:42

      o resto usa G#m !!!!!!!

  • wesley155 wesley155: Postado em 29/05/2012 14:34

    ta errado a introdução

    • risperino risperino: Postado em 25/07/2012 20:39

      Também achei meio esquisita

    • leeon2rd0 leeon2rd0: Postado em 19/09/2013 18:08

      eu arrumei a introducao agora

    • deiverson.afonso deiverson.afonso: Postado em 14/04/2014 - 15:53

      o solo ta certo

  • hyago17 hyago17: Postado em 24/05/2012 11:56

    MUITOO LINDAA !!

  • zarakikempachi zarakikempachi: Postado em 22/05/2012 15:42

    Qual é o Ritmo ?

  • adidasf50 adidasf50: Postado em 14/05/2012 18:20

    introdução errada

Exibindo 10 de 22 comentários Mostrar mais ver todos »
Composição: Sabe quem é o compositor? Envie pra gente. Contribuição: tosim Correções: Laion , leeon2rd0 e mais 25 »
  1. Tudo Que Você Quiser - Luan Santana Manteve-se 5.417 exibições
  2. Lepo Lepo - Psirico Manteve-se 3.901 exibições
  3. Mozão - Lucas Lucco Manteve-se 3.749 exibições
  4. Logo Eu - Jorge e Mateus Manteve-se 3.341 exibições
  5. Gaveta - Fernando e Sorocaba Manteve-se 2.999 exibições
  6. Só Os Loucos Sabem - Charlie Brown Jr. Manteve-se 2.698 exibições
  7. Pra Você - Onze:20 Manteve-se 2.391 exibições
  8. Tempo Perdido - Legião Urbana Manteve-se 2.189 exibições
  9. Fui Fiel - Gusttavo Lima Manteve-se 2.019 exibições
  10. Na Linha do Tempo - Victor e Leo Manteve-se 1.925 exibições
  1. Jorge e Mateus- Manteve-se 20.025 exibições
  2. Legião Urbana- Manteve-se 17.810 exibições
  3. Luan Santana- Manteve-se 15.901 exibições
  4. Charlie Brown Jr.- Manteve-se 15.521 exibições
  5. Fernandinho- Manteve-se 13.364 exibições
  6. Thalles Roberto- Manteve-se 10.046 exibições
  7. Aline Barros- Manteve-se 9.582 exibições
  8. Católicas- Manteve-se 9.431 exibições
  9. Victor e Leo- Manteve-se 9.367 exibições
  10. Gusttavo Lima- Manteve-se 8.996 exibições
Exibir acordes »

Cifras e tabs

Fórum Cifra Club

Aprenda

Cifra Club News

Mais Serviços Cifra Club ID

Studio Sol

©1996 - 2014 Cifra Club · o primeiro, maior e mais acessado do Brasil · 329 mil músicas · 5.9 milhões pessoas cadastradas

publicidade
fechar