Mil Cairão

Fernandinho

 Fernandinho
Tom: E

Intro: G#m B Eb

(intro)

G|--------------------------------------------||
D|--------------------------------------------||
A|-----------------6-6-6-6-6-6-6-6------------||4X__.
E|-4-4-4-4-7-7-7-7----------------------------||

Riff 2

G|-----------------------------------------||
D|------4-4h6-6-6-4------------------------||
A|-----------------7-7-7-6-4-4-4-6---------||
E|--4-7------------------------------------||

Riff 3

o O O o o... Uhhnnnnn
		G|-13h15-13------------------------------------------||
		D|----------16—14--11h13-11-14-13-11-----------------||
		A|---------------------------------------------------||
		E|---------------------------------------------------||

Comentários 3

  • whalefy whalefy: Postado em 27/08/2014 14:41

    Corrigida !!! =D
    Qualquer erro foi mal ....

  • felipe_ferreira felipe_ferreira: Postado em 12/03/2014 17:10

    Mil Cairão - fernandinho bass no youtube este esta correto assistam !

  • felipe_ferreira felipe_ferreira: Postado em 12/03/2014 17:09

    cifra esta errada!

Composição: Fernandinho
Esse não é o compositor? Avise-nos.
Contribuição: francynho Correções: whalefy »
publicidade
fechar