A sanguessuga

Fruto Sagrado

 Fruto Sagrado
Tom: C
		
Tom : E
Introdução: reker um pouco d agilidade..
                       Riff #1

e|------------||-------------------------------| 
B|------------||-------------------------------| 
G|------------||-------------------------------| 
D|------------||-------------------------------| 
A|------------||--5--7-5------5~~-5-7-5--------| 
E|----9\------||-0-------6-5-3---------6-5/3-0-| 

  
 Riff #2                             Riff #3

e|---------------------------------||------------------------------------|
B|---------------------------------||------------------------------------|                                
G|---------------------------------||------------------------------------|                                                                           
D|---------------------------------||------------------------------------|                                                                             
A|--5--7-5-----5~~-5-7-5----5-5----||--5--7-5-----5~~-5-7-5----5-5--2--2-|                                                                                
E|-0------6-5-3---------6-5-3-3-0--||-0------6-5-3---------6-5-3-3--0--0-|                                                                                  


A introdução vai ficar assim:
Toca-se (Riff #1) 3 vezes, toca-se (Riff #2) 1 vez, toca-se (Riff #1) mais 1 vez e toca-se 1 vez (Riff #3).

Versos:
 (Riff #4)

e|---------------------------------------|
B|---------------------------------------|
G|---------------------------------------|
D|---------------------------------------|
A|--2---2-----2---2----5---5-5-5--7-8-7--|
E|--0---0-----0---0----3---3-3-3--5-6-5--|


Depois dos versos tem esse (Riff #5) antes d entrar no coro. [hehe!]

e|-------------------------------------------|
B|-------------------------------------------|
G|-------------------------------------------|
D|-------------------------------------------|
A|--2---2-----2---2----5---5-5-5--7-8-7-5-2--|
E|--0---0-----0---0----3---3-3-3--5-6-5-3-0--|


Coro:	toca-se 2vezes		         
 A sanguessuga tem 2 filhas..     Dá,dá,dá,dadadá

e|-------------------------||---------------------|
B|-------------------------||---------------------|
G|-------------------------||---------------------|
D|-------------------------||---------------------|
A|--2---5---7---7-8-7-5----||--2---5---7--5-5--2--|
E|--0---3---5---5-6-5-3----||--0---3---5--3-3--0--|


Depois do coro vem o (Riff #1),(Riff #2),(Riff #1)2x

Versos : Repete (Riff #4)

Coro: Repete o riff do coro e dá um tempo pra entrar no solo.

Esse riff serve d base pro solo             3x

e|--------|------------------------|-------------------|
B|--------|------------------------|-------------------|
G|--------|------------------------|-------------------|
D|--------|------------------------|-------------------|
A|--------|---2-2-2-2-2-2-2-2-2-2--|---5-5-5-5/7-7-7---|
E|---9\---|---0-0-0-0-0-0-0-0-0-0--|---3-3-3-3/5-5-5---|







Esse riff é pro final da música:


e|----------------------------|
B|----------------------------|
G|----------------------------|
D|------5-7-7/9\7-5-----------|
A|---5-7--------------2---2---|
E|--------------------0---0---|



A ordem da música vai ficar assim:

Introdução >>
Versos >> (Riff #4)
Passagem pro coro >> (Riff #5)
Coro >>
>> (Riff #1),(Riff #2),(Riff #1)2x
Versos >> (Riff #4)
Coro >>
>> riff base pro solo
coro >>
>> (riff #1), (riff #2),(riff #1),(riff #2),(riff #1).....
>> riff final .
Cabô!!!
32.830 exibições

Comentários 2

  • Aldneo Aldneo: Postado em 12/03/2014 10:51

    até consegui fazer os riffs, mas alguém ai conseguiu configurar a pedalera par um som mais parecido com o que o Bene usa?

  • wallace wallace: Postado em 05/09/2013 13:46

    Essa música é com o over na guitar?

Composição: Marcão
Esse não é o compositor? Avise-nos.
Contribuição: _-Dobermann-_
Exibir acordes »
publicidade
fechar