1997

Hateen

 Hateen
Tom: F
		
Ouçam a música pra pegar o ritmo!

O Violão/Guitarra é afinado(a) meio tom abaixo, a afinação de ambos deve estar assim:
   1ª corda D# : 2ª corda Bb : 3ª corda F# : 4ª corda C# : 5ª corda G# : 6ª corda D# 


(ABAFADO) 1x


d#|----------------------|
Bb|----------------------|
F#|--9-----6--4--2-------|
C#|--9--9--6--4--2--2----|
G#|--7--6--4--2--0--2----|
D#|-----------------0----|


"Mil novecentos e noventa e sete,
novembro ainda me lembro,
era fim de ano, eu não tinha nada e você um novo emprego,
foi quando tudo aconteceu..."

(INICIA BATIDA DA MÚSICA)

1x

d#|----------------------|
Bb|----------------------|
F#|--9-----6--4--2-------|
C#|--9--9--6--4--2--2----|
G#|--7--6--4--2--0--2----|
D#|-----------------0----|


"A vida era difícil mas juntos tudo estava bem,
algumas brigas claro mas isso é tão normal
quando se quer alguém,
como eu quis você"

2x                                                         

      A#5
d#|--------------------------|--------------------------|
Bb|--------------------------|--------------------------|
F#|--------------------------|--------------------------|
C#|--9--9--9--9--9--9--9--9--|--9--9--9--9--9--9--9--9--|
G#|--9--9--9--9--9--9--9--9--|--9--9--9--9--9--9--9--9--|
D#|--7--7--7--7--7--7--7--7--|--7--7--7--7--7--7--7--7--|



      G#5                                                    D#5
d#|--------------------------|--------------------------|--------------------|
Bb|--------------------------|--------------------------|--------------------|
F#|--------------------------|--------------------------|--9--9--9--9--9--9--|
C#|--7--7--7--7--7--7--7--7--|--7--7--7--7--7--7--7--7--|--9--9--9--9--9--9--|
G#|--7--7--7--7--7--7--7--7--|--7--7--7--7--7--7--7--7--|--7--7--7--7--7--7--|
D#|--5--5--5--5--5--5--5--5--|--5--5--5--5--5--5--5--5--|--------------------|



      A#5                         G#5
d#|--------------------------|--------------------------|
Bb|--------------------------|--------------------------|
F#|--------------------------|--------------------------|
C#|--9--9--9--9--9--9--9--9--|--7--7--7--7--7--7--7--7--|
G#|--9--9--9--9--9--9--9--9--|--7--7--7--7--7--7--7--7--|
D#|--7--7--7--7--7--7--7--7--|--5--5--5--5--5--5--5--5--|


"Eu quis matar todos seus amigos,
falsos e fingidos que sorriam ao me ver"

"E encontrava companhia,
num copo de bebida,
num cigarro ou outra droga qualquer,
já que não tinha mais vocêêê..."

(PARA BATIDA E DEIXA SOAR)

BASE DO SOLINHO   1x

d#|----------------------|
Bb|----------------------|
F#|--9-----6--4--2-------|
C#|--9--9--6--4--2--2----|
G#|--7--6--4--2--0--2----|
D#|-----------------0----|


SOLINHO   1x

d#|----------------------------------------------------------------------------------------------------|
Bb|----------------------------------------------------------------------------------------------------|
F#|----------------------------------------------------------------------------------------------------|
C#|-5/7--7b-7/5--5/7--7b-7/5--5/7--7b-7--7/10--8-7--8--8/10--8-7--8--8/10--8-7-8/3--3-3-3-3-5/7--5--5/7|
G#|----------------------------------------------------------------------------------------------------|
D#|----------------------------------------------------------------------------------------------------|


VERSO   2x

d#|----------------------|
Bb|----------------------|
F#|--9-----6--4--2-------|
C#|--9--9--6--4--2--2----|
G#|--7--6--4--2--0--2----|
D#|-----------------0----|


"Reaprender o caminho pra casa não foi algo tão simples,
nos primeiros dias eu me perdia nos meus passos sem você,
eu mal sabia o que fazer..

De vez em quando a gente se encontrava nas escadas,
eu tentava dizer algo e você sempre
dava riiiiiisada,
tudo vai acabar bem.."

2x                                                         
   

      A#5
d#|--------------------------|--------------------------|
Bb|--------------------------|--------------------------|
F#|--------------------------|--------------------------|
C#|--9--9--9--9--9--9--9--9--|--9--9--9--9--9--9--9--9--|
G#|--9--9--9--9--9--9--9--9--|--9--9--9--9--9--9--9--9--|
D#|--7--7--7--7--7--7--7--7--|--7--7--7--7--7--7--7--7--|

             
  
      G#5                                                    D#5
d#|--------------------------|--------------------------|--------------------|
Bb|--------------------------|--------------------------|--------------------|
F#|--------------------------|--------------------------|--9--9--9--9--9--9--|
C#|--7--7--7--7--7--7--7--7--|--7--7--7--7--7--7--7--7--|--9--9--9--9--9--9--|
G#|--7--7--7--7--7--7--7--7--|--7--7--7--7--7--7--7--7--|--7--7--7--7--7--7--|
D#|--5--5--5--5--5--5--5--5--|--5--5--5--5--5--5--5--5--|--------------------|



          F5                       D#5                      F5 
d#|------------------------|-----------------------|------------------------|
Bb|------------------------|-----------------------|------------------------|
F#|-11--11--11--11--11--11-|-9---9---9---9---9---9-|-11--11--11--11--11--11-|
C#|-11--11--11--11--11--11-|-9---9---9---9---9---9-|-11--11--11--11--11--11-|
G#|-9---9---9---9---9---9--|-7---7---7---7---7---7-|-9---9---9---9---9---9--|
D#|------------------------|-----------------------|------------------------|


"Quase 10 anos depois,
eu consigo entender,
que eu tinha que continuar,
fosse com ou sem você,

Nem sei como cheguei aqui,
mas saiba que eu estou feliiiiiz!
A sua falta quase me matou,
hoje eu tenho tudo o que eu
sempre quiiiiiiiiiiiiiiis aaaaaaah!

1x

d#|---------------------|
Bb|---------------------|
F#|--9-----6--4--2------|
C#|--9--9--6--4--2------|
G#|--7--6--4--2--0------|
D#|---------------------|


1x

d#|---------------------0--|
Bb|---------------------0--|
F#|--9-----6--4--2---------|
C#|--9--9--6--4--2--2------|
G#|--7--6--4--2--0--2------|
D#|-----------------0------|


"Mil novecentos e noventa e sete,
ainda me lembro,
de tudo que eu quero esqueceeeeeeer..."

(ABAFADO)

1x                                                       DICA:
d#|---------------------0--|             Solte o abafado quando for mudar para o D#5 (ré#), 

Bb|---------------------0--|             dê apena uma batida no acorde D#5 (ré#) e toque
F#|--9-----6--4--2---------|             as duas primeiras cordas, deixando soar.
C#|--9--9--6--4--2--2------|            
G#|--7--6--4--2--0--2------|             Você irá fazer essa dica q eu dei nos 2 ultimos RIFF.
D#|-----------------0------|




Correção:
O verdadeiro tom da música é D#.
Para tocar a música no tom verdadeiro, você será obrigado
a usar afinação em D#, pois há um D#zão no final do verso:


D# Bb F# C# G# d#
|0|__|__|__|__|__|
|_|__|__|__|__|__| 
|_|_2|_2|__|__|__|





Em Baixo de 5 cordas você não precisa mudar afinação.. hehehe
A|666666-555555-333333-111111-----------------
E|---------------------------444444-----------
B|--------------------------------------444444

    D#     D      C      Bb    G#          D#
Texto Colunas
Alterar tom ½ tom ½ tom
afinação acordes na letra esconder tabs mais »

Comentários 0

Composição: R. Pyne / Teddy Reddell
Esse não é o compositor? Avise-nos.
Contribuição: peucaio Correções: Dedé_3001 , Cláudio e mais 5 »
  1. Domingo de Manhã - Marcos e Belutti Manteve-se 102.105 exibições
  2. Logo Eu - Jorge e Mateus Manteve-se 47.110 exibições
  3. Não Vai Voltar - Onze:20 Manteve-se 43.626 exibições
  4. Maus Bocados - Cristiano Araújo Manteve-se 41.276 exibições
  5. Pra Você - Onze:20 Manteve-se 40.811 exibições
  6. Recaídas - Henrique e Juliano Manteve-se 40.053 exibições
  7. Só Os Loucos Sabem - Charlie Brown Jr. Manteve-se 32.225 exibições
  8. Aonde Quer Que Eu Vá - Os Paralamas do Sucesso Manteve-se 32.124 exibições
  9. É Preciso Saber Viver - Titãs Manteve-se 30.368 exibições
  10. Pais e Filhos - Legião Urbana Manteve-se 30.068 exibições
  1. Jorge e Mateus- Manteve-se 292.826 exibições
  2. Legião Urbana- Manteve-se 218.900 exibições
  3. Charlie Brown Jr.- Manteve-se 152.408 exibições
  4. Marcos e Belutti- Manteve-se 125.986 exibições
  5. Fernandinho- Manteve-se 124.613 exibições
  6. Henrique e Juliano- Manteve-se 117.899 exibições
  7. Bruno e Marrone- Manteve-se 108.690 exibições
  8. Onze:20- Manteve-se 108.022 exibições
  9. Luan Santana- Manteve-se 94.838 exibições
  10. Thalles Roberto- Manteve-se 93.559 exibições
Exibir acordes »

Cifras e tabs

Fórum Cifra Club

Aprenda

Cifra Club News

Mais Serviços Cifra Club ID

Studio Sol

©1996 - 2014 Cifra Club · o primeiro, maior e mais acessado do Brasil · 336 mil músicas · 6.2 milhões pessoas cadastradas

publicidade
fechar