Tire Essa Máscara

Henrique e Juliano

 Henrique e Juliano
Tom: F
		
Intro: Dm


E|---------0-1-3-0--0h1p0---|
B|-----3------------------3-|
G|-0h2----------------------|
D|--------------------------|
A|--------------------------|
E|--------------------------|


Dm
Como um violão desafinado
                Bb
Coração tá bagunçado querendo entender
        F
O que passou ficou em mim dentro do coração
              C
Feito uma tatuagem que nunca vai desaparecer
Dm
Sei que você também sente o mesmo
                    Bb
Mas seu orgulho não deixa você me querer
  F
E o pior de tudo é que eu construí um mundo 
          C
E plantei flores pra te dar mas elas vão morrer

Bb
Será que você não percebe que agindo assim
  F
Você só tá fazendo a gente sofrer?
Bb
Você pode negar mas vejo nos seus olhos
       C
Que tá querendo me amar mas não quer me dizer

Refrão:

Bb
Tire essa máscara e mostre teu sorriso
          F                 C
Que eu preciso dele pra me iluminar.
Bb
Não se esconda atrás da maquiagem
           F                  C
Não é hora disso, já perdemos muito tempo sem nos entregar.
Bb                                              F
De que ainda ficar sem se amar, isso é um desperdício,
                C                         Bb  C
Se tenho tanto amor guardado no peito pra dar.

Solo: Dm F C


E|-----------------------------------------------------------------------|
B|-5/6-6p5-----6-6p5-----6-6p5-----6-----6-8-8/10---8/10-8---6p5---------|
G|---------7---------7---------7-------5-------------------------7-5-5/7-|
D|-----------------------------------------------------------------------|
A|-----------------------------------------------------------------------|
E|-----------------------------------------------------------------------|


Bb
Será que você não percebe que agindo assim
  F
Você só tá fazendo a gente sofrer?
Bb
Você pode negar mas vejo nos seus olhos
       C
Que tá querendo me amar mas não quer me dizer

Refrão: 2X

Bb
Tire essa máscara e mostre teu sorriso
          F                 C
Que eu preciso dele pra me iluminar.
Bb
Não se esconda atrás da maquiagem
           F                  C
Não é hora disso, já perdemos muito tempo sem nos entregar.
Bb                                              F
De que ainda ficar sem se amar, isso é um desperdício,
                C                         Bb   C
Se tenho tanto amor guardado no peito pra dar.

Solo final: Dm


E|----------------------------------------|
B|-6-6p5-----6-6p5-----5/6-------6-8-8/10-|
G|-------7---------7-----------5----------|
D|---------------------------7------------|
A|----------------------------------------|
E|----------------------------------------|


Dm
Como um violão desafinado
                Bb                        Dm
Coração tá bagunçado querendo entender...


E|----------------------------------|
B|-8/10\6-6-5-----6-5---------------|
G|------------7-------7-5------7-7\-|
D|------------------------8-7-------|
A|----------------------------------|
E|----------------------------------|
32.305 exibições

Comentários 3

  • Felipe Felipe : Postado em 17/10/2013 12:31

    muito facil tirei de cabeça

  • alex alex: Postado em 05/08/2013 10:06

    mto boa e super facil

  • deivid.mairom deivid.mairom: Postado em 22/07/2013 20:57

    Vídeo-aula agora !!! :D

Composição: Sabe quem é o compositor? Envie pra gente. Contribuição: danielnunes84 Correções: Ivan e mais 1 »
Exibir acordes »
publicidade
fechar