Toda Vez Que Eu Te Beijar

Henrique e Juliano

 Henrique e Juliano
Tom: A
		
Intro: A  E  F#m  D

Solo:

E|-----------------------------------------------------------------9---------------------------------|
B|-9/10-10-10-10-10-10---5-5-5-5/7-5-5---7/9-9-9-9-10-9---12-12-12---12-10--9-7-5------------5--9/10-|
G|---------------------------------------------------------------------------------6-4----7----------|
D|-------------------------------------------------------------------------------------7-------------|
A|---------------------------------------------------------------------------------------------------|
E|---------------------------------------------------------------------------------------------------|


A
Se eu te contar meu segredo sei que vai me entender
E
Só que eu não posso ir me entregando pra você
F#m                                      D
Vamo com calma , vamo ver se rola pra ninguém se machucar
A
Ainda é muito cedo pra gente falar de amor,
E
Isso não quer dizer que apaixonado eu não tô
F#m                                         D
Só tô indo com calma pra quando eu te entregar meu coração

Não tem mais duvidas

A
Que esse amor em mim pra sempre vai ficar
E
Que eu vou parar o mundo toda vez que eu te beijar
F#m                                  D
E vou calar a boca de quem não acreditar no meu amor
                     A
Você sabe que eu sou um cara imprevisível
                    E
Sei que vou superar toda expectativa que você tem de me amar
F#m                                        D
Sem perceber você não vai conseguir mais viver sem meu amor
                 A         E    F#m  D
Você sabe que eu sou , seu amor


E|-----------------------------------------------------------------9---------------------------------|
B|-9/10-10-10-10-10-10---5-5-5-5/7-5-5---7/9-9-9-9-10-9---12-12-12---12-10--9-7-5------------5--9/10-|
G|---------------------------------------------------------------------------------6-4----7----------|
D|-------------------------------------------------------------------------------------7-------------|
A|---------------------------------------------------------------------------------------------------|
E|---------------------------------------------------------------------------------------------------|



E|----------12-|
B|-10p9--------|
G|-------9-----|
D|-------------|
A|-------------|
E|-------------|


A
Ainda é muito cedo pra gente falar de amor,
E
Isso não quer dizer que apaixonado eu não tô
F#m                                        D
Só tô indo com calma pra quando eu te entregar meu coração

Não tem mais duvidas

Refrão: (2x)

A
Que esse amor em mim pra sempre vai ficar
E
Que eu vou parar o mundo toda vez que eu te beijar
F#m                                  D
E vou calar a boca de quem não acreditar no meu amor
                     A
Você sabe que eu sou um cara imprevisível
                    E
Sei que vou superar toda expectativa que você tem de me amar
F#m                                        D
Sem perceber você não vai conseguir mais viver sem meu amor
                 A          E    F#m D A
Você sabe que eu sou... seu amor


E|-----------------------------------------------------------------9---------------------------------|
B|-9/10-10-10-10-10-10---5-5-5-5/7-5-5---7/9-9-9-9-10-9---12-12-12---12-10--9-7-5------------5--9/10-|
G|---------------------------------------------------------------------------------6-4----7----------|
D|-------------------------------------------------------------------------------------7-------------|
A|---------------------------------------------------------------------------------------------------|
E|---------------------------------------------------------------------------------------------------|



E|---------------|
B|-10p9----------|
G|-------9-------|
D|----------9/11-|
A|---------------|
E|---------------|
55.653 exibições

Comentários 4

  • Vinícius Vinícius: Postado em 25/02/2015 18:06

    Cade o Solo ?

  • Ivan Ivan: Postado em 28/10/2014 06:37

    Então pow, eu tinha postado o solo dela, mais tiraram... esses cara é difícil de mexer! :/

  • João João: Postado em 26/10/2014 22:10

    Cade o solo man ?

  • Ivan Ivan: Postado em 24/10/2014 02:05

    Caramba mano, tiraram o solo que eu mandei? Valeu CifraClub (y)

Composição: Henrique
Esse não é o compositor? Avise-nos.
Contribuição: leocesar Correções: Ivan , Ivan e mais 10 »
Exibir acordes »
publicidade
fechar