Toda Vez Que Eu Te Beijar

Henrique e Juliano

 Henrique e Juliano
Tom: A
		
Intro: A E F#m D

Solo:


E|-----------------------------------------------------------------9-------------------------------|
B|-9/10-10-10-10-10-10---5-5-5-5/7-5-5---7/9-9-9-9-10-9---12-12-12---12-10---9-7-5------------9/10-|
G|---------------------------------------------------------------------------------6-4---7-9-------|
D|-------------------------------------------------------------------------------------7-----------|
A|-------------------------------------------------------------------------------------------------|
E|-------------------------------------------------------------------------------------------------|


A
Se eu te contar meu segredo sei que vai me entender
E
Só que eu não posso ir me entregando pra você
F#m                                      D
Vamo com calma , vamo ver se rola pra ninguém se machucar
A
Ainda é muito cedo pra gente falar de amor,
E
Isso não quer dizer que apaixonado eu não tô
F#m                                         D
Só tô indo com calma pra quando eu te entregar meu coração

Não tem mais duvidas

A
Que esse amor em mim pra sempre vai ficar
E
Que eu vou parar o mundo toda vez que eu te beijar
F#m                                  D
E vou calar a boca de quem não acreditar no meu amor
                     A
Você sabe que eu sou um cara imprevisível
                    E
Sei que vou superar toda expectativa que você tem de me amar
F#m                                        D
Sem perceber você não vai conseguir mais viver sem meu amor
                 A         E    F#m  D
Você sabe que eu sou , seu amor

Solo:


E|-----------------------------------------------------------------9-------------------------------|
B|-9/10-10-10-10-10-10---5-5-5-5/7-5-5---7/9-9-9-9-10-9---12-12-12---12-10---9-7-5------------9/10-|
G|---------------------------------------------------------------------------------6-4---7-9-------|
D|-------------------------------------------------------------------------------------7-----------|
A|-------------------------------------------------------------------------------------------------|
E|-------------------------------------------------------------------------------------------------|



E|----------12-|
B|-10p9--------|
G|-------9-----|
D|-------------|
A|-------------|
E|-------------|


A
Ainda é muito cedo pra gente falar de amor,
E
Isso não quer dizer que apaixonado eu não tô
F#m                                        D
Só tô indo com calma pra quando eu te entregar meu coração

Não tem mais duvidas

Refrão: (2x)

A
Que esse amor em mim pra sempre vai ficar
E
Que eu vou parar o mundo toda vez que eu te beijar
F#m                                  D
E vou calar a boca de quem não acreditar no meu amor
                     A
Você sabe que eu sou um cara imprevisível
                    E
Sei que vou superar toda expectativa que você tem de me amar
F#m                                        D
Sem perceber você não vai conseguir mais viver sem meu amor
                 A          E    F#m D A
Você sabe que eu sou... seu amor


E|-----------------------------------------------------------------9-------------------------------|
B|-9/10-10-10-10-10-10---5-5-5-5/7-5-5---7/9-9-9-9-10-9---12-12-12---12-10---9-7-5------------9/10-|
G|---------------------------------------------------------------------------------6-4---7-9-------|
D|-------------------------------------------------------------------------------------7-----------|
A|-------------------------------------------------------------------------------------------------|
E|-------------------------------------------------------------------------------------------------|



E|-5p4-------|
B|-----5-----|
G|-------4/6-|
D|-----------|
A|-----------|
E|-----------|
Texto Colunas
Alterar tom ½ tom ½ tom
afinação acordes na letra esconder tabs mais »
29.371 exibições

Comentários 0

Composição: Henrique
Esse não é o compositor? Avise-nos.
Contribuição: leocesar Correções: Ivan , Ivan e mais 8 »
  1. Até Você Voltar - Henrique e Juliano Manteve-se 100.972 exibições
  2. Domingo de Manhã - Marcos e Belutti Manteve-se 81.304 exibições
  3. Cuida Bem Dela - Henrique e Juliano Manteve-se 57.181 exibições
  4. Choram As Rosas - Bruno e Marrone Manteve-se 48.428 exibições
  5. Tudo Que Você Quiser - Luan Santana Manteve-se 48.042 exibições
  6. Recaídas - Henrique e Juliano Manteve-se 44.108 exibições
  7. Raridade - Anderson Freire Manteve-se 36.435 exibições
  8. Pra Você - Onze:20 Manteve-se 34.752 exibições
  9. Só Os Loucos Sabem - Charlie Brown Jr. Manteve-se 32.854 exibições
  10. Logo Eu - Jorge e Mateus Manteve-se 31.064 exibições
  1. Henrique e Juliano- Manteve-se 295.487 exibições
  2. Jorge e Mateus- Manteve-se 231.631 exibições
  3. Legião Urbana- Manteve-se 210.234 exibições
  4. Bruno e Marrone- Manteve-se 169.326 exibições
  5. Charlie Brown Jr.- Manteve-se 154.960 exibições
  6. Luan Santana- Manteve-se 148.363 exibições
  7. Fernandinho- Manteve-se 119.730 exibições
  8. Marcos e Belutti- Manteve-se 99.275 exibições
  9. Thalles Roberto- Manteve-se 93.554 exibições
  10. Aline Barros- Manteve-se 82.429 exibições
Exibir acordes »

Cifras e tabs

Fórum Cifra Club

Aprenda

Cifra Club News

Mais Serviços Cifra Club ID

Studio Sol

©1996 - 2014 Cifra Club · o primeiro, maior e mais acessado do Brasil · 339 mil músicas · 6.3 milhões pessoas cadastradas

publicidade
fechar