Tom: C
		

E|----------------7------------------------------------|
B|------8---10--------7---7----8-----10----------------|
G|------------------------------------------9-------9--|
D|-----------------------------------------------------| 2x
A|-----------------------------------------------------|
E|-----------------------------------------------------|



E|-----------------------|
B|-----------------------|
G|--7------------7-------|
D|--------10-------------|
A|-----------------------|
E|-----------------------|


G            D       C
Quero sempre estar diante de ti
          G
No teu altar
G            D         C            G
Pronto pra sentir e receber o teu poder

Em       D              C
Além do véu eu quero estar
     G/B  Am      D     Em
Vem  flu- ir  a  tua unção
           D           C
E transbordar meu coração
             G/B   Am        D          G
Quero pronto es - tar pra seguir e conquistar

            F
Renova a unção sobre mim
      C              Cm        D       G
Para profetizar e  pregar   a   libertação
           F
E o teu poder pra curar
     C                    Cm
As cadeias quebrar com o agir
     D           G
E fluir desta unção

                       D/F#  Em
Uma só palavra que Deus mandar
                     G/B    Am
Vai fazer a minha vida mudar
                         G/B   C
Em meios às lutas eu vou triunfar
                        D         G
Pois eu sei que é só em  ti   confiar
                            D/F#  Em
Se o inimigo quiser me com - ba - ter
                       G/B   Am
Não há nada que me faça temer
                       G/B  C
Não importa o que enfrentarei
              D          G
Com a unção imbatível serei

Para voltar à 2ª estrofe: G  F  C  D  Ebº  Em

Comentários 2

Composição: Sabe quem é o compositor? Envie pra gente. Contribuição: o_mensageiro Correções: Jármison , deschamps e mais 2 »
Exibir acordes »
publicidade
fechar