Cifra Club

Tua Unção

Igreja Batista Nova Jerusalém

Cifra: Principal (violão e guitarra)
exibições 208.417
Tom: Em
[Intro] Em  Bm/D  C7M  G/B
        Em  Bm/D  C7M

E|----------------7------------------------------------|
B|------8---10--------7---7----8-----10----------------|
G|------------------------------------------9-------9--|
D|-----------------------------------------------------|
A|-----------------------------------------------------|
E|-----------------------------------------------------|

E|----------------7------------------------------------|
B|------8---10--------7---7----8-----10----------------|
G|------------------------------------------9-------9--|
D|-----------------------------------------------------|
A|-----------------------------------------------------|
E|-----------------------------------------------------|

E|-----------------------|
B|-----------------------|
G|--7------------7-------|
D|--------10-------------|
A|-----------------------|
E|-----------------------|

G              D/F#           C/E
   quero sempre estar diante de ti
Cm/Eb    G
No teu altar
G                     D/F#
    pronto pra sentir
      C   Am      G
E receber o teu poder

Em           Bm/D            C
    além do véu eu quero estar
    G/B      Am    C/D     Em
Vem  flu  -  ir  a  tua unção
           Bm/D        C
E transbordar meu coração
         G/B   Am            C/D              G
Quero pronto estar     pra seguir e conquistar

            F
Renova a unção sobre mim
           C           Eb6   D        G
Para profetizar e pregar  a   libertação
           F
E o teu poder pra curar
           C                Eb6
As cadeias quebrar com o agir
     D            G
E fluir desta unção

                         D/F#    Em
Uma só palavra que deus mandar
                        G/B    C
Vai fazer a minha vida mudar
                           G/B    Am
Em meios às lutas, eu vou triunfar
                           C/D     G
Pois eu sei que é só em ti confiar
                        D/F#  Em
Se o inimigo quiser me combater
                        G/B    C
Não há nada que me faça temer
                       G/B   Am
Não importa o que enfrentarei
                     C/D     G
Com a unção, imbatível serei

( G  F  C  D   Ebº )

Alem do vel

( G  G/B  C  D   Em  G/B )

[Final] C  C/D  G  C/G  D/F#  G
   com a unção, imbatível serei
Acordes para:

    0 comentários

      mostrar mais comentários

      Conseguiu tocar?

      11tocaram1ainda não

      Grave um vídeo tocando Tua Unção e mande pra gente!

      00:00 / 00:00
      outros vídeos desta música
      repetirqualidadeAutomático
      Outro vídeos desta música
        00:00 / 00:00
        OK