Cifra Club

Derrama tua glória

Ministério Unção Ágape

Cifra: Principal (violão e guitarra)
Selo Cifra Club: esta cifra foi revisada para atender aos critérios oficiais da nossa Equipe de Qualidade.
tom: C#m
[Intro] C#m  A  E  B 
        C#m  A  E  B7

E|---/7~------------------------------------|
B|-5------9b10r9b10r9p7\5--7/9-7------------|
G|------------------------------------------|
D|------------------------------------------|
A|------------------------------------------|
E|------------------------------------------|

E|------------------------------------------|
B|-4h5p4p0------------4h5-4-----------------|
G|---------4/6--2/4-6-------4---------------|
D|-----------------------------6\4-2--------|
A|------------------------------------------|
E|------------------------------------------|

E|------------------------------------------|
B|-----5-5/7~-------------------------------|
G|-4/6--------------------------------------|
D|------------------------------------------|
A|------------------------------------------|
E|------------------------------------------|

[Primeira Parte]

C#m7             A
     Meu maior prazer
C#m7                  B
     Estar em tua presença
C#m7                A
     Prostrado aos teus pés
       B7                        C#m
Te adorar Jesus Senhor da minha vida

C#m7             A
     Eu ouço a tua voz
C#m7                   B
     Eu sinto o teu mover aqui
C#m7                      F#m
     Quero mais de Ti Senhor
          B7
Do teu poder e tua unção
   B4           B7
Eu ergo minhas mãos e clamo

[Refrão]

C#m7               F#m  B
     Derrama tua gló__ria
              E   E/G#   A  E/G#
Derrama tua shekinah Senhor
       F#m                 G#7      C#m7
Inunda o meu ser nos rios deste amor
              F#m  B
Derrama tua gló__ria
              E   E/G#   A  E/G#
Derrama tua shekinah Senhor
       F#m                 G#7       
Inunda o meu ser nos rios deste amor

[Solo] C#m  A  E  B

E|------------------------------------------|
B|------9~-9~--7-5-4-5----------------------|
G|-6/9-----------------4/6-4----------------|
D|---------------------------4\2-2----------|
A|------------------------------------------|
E|------------------------------------------|

E|-----------12-11--------------------------|
B|-7-9-10-12-------12-----------------------|
G|---------------------11-9-8---------------|
D|----------------------------9-9/11--------|
A|------------------------------------------|
E|------------------------------------------|

[Primeira Parte]

C#m7             A
     Meu maior prazer
C#m7                  B
     Estar em tua presença
C#m7                A
     Prostrado aos teus pés
       B7                        C#m
Te adorar Jesus Senhor da minha vida

C#m7             A
     Eu ouço a tua voz
C#m7                   B
     Eu sinto o teu mover aqui
C#m7                      F#m
     Quero mais de Ti Senhor
          B7
Do teu poder e tua unção
   B4           B7
Eu ergo minhas mãos e clamo

[Refrão]

C#m7               F#m  B
     Derrama tua gló__ria
              E   E/G#   A  E/G#
Derrama tua shekinah Senhor
       F#m                 G#7      C#m7
Inunda o meu ser nos rios deste amor
              F#m  B
Derrama tua gló__ria
              E   E/G#   A  E/G#
Derrama tua shekinah Senhor
       F#m                 G#7       C#m7  
Inunda o meu ser nos rios deste amor

              F#m  B
Derrama tua gló__ria
              E   E/G#   A  E/G#
Derrama tua shekinah Senhor
       F#m                 G#7       C#m7     
Inunda o meu ser nos rios deste amor
              F#m  B
Derrama tua gló__ria
              E   E/G#   A  E/G#
Derrama tua shekinah Senhor
       F#m                 G#7       
Inunda o meu ser nos rios deste amor

[Final] C#m7  A  E  B  C#m7
Outros vídeos desta música
    495.964 exibições
      • ½ Tom
      • Am
      • Bbm
      • Bm
      • Cm
      • C#m
      • Dm
      • Ebm
      • Em
      • Fm
      • F#m
      • Gm
      • G#m
    • Adicionar à lista

    Afinação da cifra

    Afinador online

      0 comentários

      Ver todos os comentários

      Entre para o Cifra Club PRO

      Tenha acesso a benefícios exclusivos no App e no Site

      • Chega de anúncios

      • Badges exclusivas

      • Mais recursos no app do Afinador

      • Atendimento Prioritário

      • Aumente seu limite de lista

      • Ajude a produzir mais conteúdo

      Cifra Club Pro

      Aproveite o Cifra Club com benefícios exclusivos e sem anúncios
      Cifra Club Pro
      Aproveite o Cifra Club com benefícios exclusivos e sem anúncios
      OK