Poço de Sensibilidade

Ira!

 Ira!
Tom: G
		
(Edgard Scandurra)

INTRODUÇÃO:
Riff 1                          

|-------------------------------------------------------------------|
|-------------------------------------------------------------------|
|---------------------------------------------------0---------------|
|-------------------0---------------2-------------2-----------------|
|---------------2-----2----------0-----2----------2-----------------|
|----0--2--3------------------2----------------0--------------------|



|-------------------------------------------------------------------|
|--------------------------------------------------0-------------0--|
|----------------------------------------------------0-----------0--|
|--------------------0------------2--------------------0h2----2-----|
|----------------2-------2-----0-----2----------------------2-------|
|--0--0--2--3---------------2----------------0----------------------|



Riff 2

|------------0---------------------|
|----------3----3------------------|
|--------2-------------------------|
|------0---------------------------|
|----------------------------------|
|----------------------------------|



Riff 1   OU SE PREFERIR PODE USAR  (G D/F# Em)
Por entre ruas, entre carros e placas
luzes cheiros e toques

     Riff 2 ou D9             G            
Eu sou um poço de sensibilidade
       B7          Em
te buscando na cidade
          D         D7        G 
Eu sou um poço de sensibilidade

riff 1   OU SE PREFERIR PODE USAR  (G D/F# Em)
Entre veludos e cetins
Fantasias e brinquedos
Desejos e um certo medo
Cheiros e toques

     Riff 2 ou D9             G    
Eu sou um poço de sensibilidade
       B7          Em
te buscando na cidade
          D        D7         G 
Eu sou um poço de sensibilidade

Riff 1   OU SE PREFERIR PODE USAR  (G D/F# Em)
O seu sorriso no meu dia a dia
A sua palavra em meu vocabulário
             D         D7             G
minha professora eu aprendi tudo errado
       B7          Em
te buscando na cidade
 C         D     D7          G
eu sou um poço de felicidade

riff 1   OU SE PREFERIR PODE USAR  (G D/F# Em)
Com seu nariz furando o vento
Com um certo ar de autoridade
          D     D7                G    
Eu fico louco, louco de saudade
       B7          Em
Sou um cara afortunado
C         D             D7                   G
perto de ti eu sou um poço de sensibilidade.



|-------5--9---7--5--7---9--5----5-5--4--------|
|-5--7----------------------------------5--7---|
|----------------------------------------------|
|----------------------------------------------|
|----------------------------------------------|
|----------------------------------------------|
118.600 exibições

Comentários 0

Composição: Edgard Scandurra
Esse não é o compositor? Avise-nos.
Contribuição: cristiandeivis Correções: Caputera e mais 1 »
Exibir acordes »
publicidade
fechar