Tom: A
		

E|----------9----9-------|-------9---9----|  2x
B|-10-10-10---10---10----|-9-9-9---9---9--|
G|-----------------------|----------------|
D|-----------------------|----------------|
A|-----------------------|----------------|
E|-----------------------|----------------|



E|----------10----10-----|----------10----10-----|  2x
B|-12-12-12----12----12--|-11-11-11----11----11--|
G|-----------------------|-----------------------|
D|-----------------------|-----------------------|
A|-----------------------|-----------------------|
E|-----------------------|-----------------------|



E|-------12---12---|-------12----11----9----11----9----7-|
B|-9-9-9----9----9-|-9-9-9-----7-----5----7-----5----4---|
G|-----------------|-------------------------------------|
D|-----------------|-------------------------------------|
A|-----------------|-------------------------------------|
E|-----------------|-------------------------------------|



E|---5---5-----------5---5-------5---5-------5---5---|
B|-3---3---3---2-2-2---2---2---3---3---3---2---2---2-|
G|---------------------------------------------------|
D|---------------------------------------------------|
A|---------------------------------------------------|
E|---------------------------------------------------|


Acompanhamento: A A7+ A A7+ Bm Bm7 Bm Bm7 E A A7+ A A7+

A
Não vejo a hora de acabar o dia
                 A7+
E pra você poder voltar
  A
Cair no aconchego dos teus braços
		E7
Corpo, alma, me entregar
  Bm
Sentir a emoção de ser amado
 		   E7
Ser bem vindo em sua vida
  Bm   		        E7
Curtir essa paixão incontrolável
       		  A    A  A7
Onde o amor é a saída
       D
Na semi-luz
	                           A
encosto meu peito nu sobre os seios seus
	   			      B7	    E7
Desfruta o sabor do amor que há nos lábios meus
       A
Amo você

Introdução ( Acompanhamento: A A7+ A A7+ Bm Bm7 Bm Bm7 E7 A A7+ A A7+ )

  A
A noite passa e o sol pela vidraça
		   A7+
Invade a nossa intimidade
  A
O simples badalar de um relógio
                 E7
Despertou toda cidade
 Bm
Ainda tento achar no meu atraso
                   E7
Alguns minutos pra você
   Bm                    E7
E faço num abraço tantas coisas
                            A        A  A7
Que numa noite não dá pra fazer

        D
Na semi-luz
				A
Encosto meu peito nu sobre os seios seus
	   			      B7	   E7
Desfruta o sabor do amor que há nos lábios meus
      A   A7+ A A7+ A
Amo você
46.856 exibições

Comentários 0

Composição: Sabe quem é o compositor? Envie pra gente. Contribuição: Tete [ZR] Correções: duran.daniel »
Exibir acordes »
publicidade
fechar