Na Moral

Jota Quest

 Jota Quest
Tom: D
		
Intro 2x: Em7  Bm  Am 

Solo: Em7  Bm  Am


E|-------------------------------|-----------------------------------|
B|-------------------------------|-----------------------------------|
G|----14/16-14-12-14-14b16r14-12-|----12-14-14b16r14-12~----------12-|
D|-12----------------------------|-12--------------------14-12-14----|
A|-------------------------------|-----------------------------------|
E|-------------------------------|-----------------------------------|



E|-------------------------------|-------------15-17-15----------15-|
B|-------------------------------|----17-15-17----------17-15-17----|
G|----14/16-14-12-14-14b16r14-12-|-14-------------------------------|
D|-12----------------------------|----------------------------------|
A|-------------------------------|----------------------------------|
E|-------------------------------|----------------------------------|


Em7   Bm   Am
Na moral, na moral (só na moral)
Em7   Bm   Am
Na moral!
Em7   Bm   Am
Na moral, na moral (só na moral)
Em7   Bm   Am
Na moral!

Em7   Bm         Am
Vivendo de folia e caos
Em7   Bm         Am
Quebrando tudo, pra variar
Em7   Bm         Am
Vivendo entre o sim e o não
Em7   Bm          Am
Levando tudo na moral
Em7   Bm          Am
Uma manchete de jornal
Em7   Bm          Am
Não vou deixar me abalar
Em7   Bm          Am
Mais uma noite, carnaval
Em7   Bm          Am
No Brasil, só na moral

Em7   Bm   Am
Na moral, na moral (só na moral)
Em7   Bm   Am
Na moral!
Em7   Bm   Am
Na moral, na moral (só na moral)
Em7   Bm   Am
Na moral!

Em7   Bm          Am
Viver entre o medo e a paz
Em7   Bm          Am
Pode fazer pensarmos mais
Em7   Bm          Am
No que a gente tem que fazer
Em7   Bm          Am
Pra ficar vivo, pra variar

C             Bm           Am
Quando tudo parece não ter lógica
Bombas de amor, tiros de amor, drogas de amor
C             Bm           Am
Qualquer paranóia vai virar prazer de viver...

Em7   Bm   Am
Na moral, na moral (só na moral)
Em7   Bm   Am
Na moral!
Em7   Bm   Am
Na moral, na moral (só na moral)
Em7   Bm   Am
Na moral!

( Em7   Bm   Am ) 2x


E|-------------------------------|-----------------------------------|
B|-------------------------------|-----------------------------------|
G|----14/16-14-12-14-14b16r14-12-|----12-14-14b16r14-12~----------12-|
D|-12----------------------------|-12--------------------14-12-14----|
A|-------------------------------|-----------------------------------|
E|-------------------------------|-----------------------------------|



E|-------------------------------|-------------15-17-15----------15-|
B|-------------------------------|----17-15-17----------17-15-17----|
G|----14/16-14-12-14-14b16r14-12-|-14-------------------------------|
D|-12----------------------------|----------------------------------|
A|-------------------------------|----------------------------------|
E|-------------------------------|----------------------------------|


Em7   Bm   Am
Na moral, na moral (só na moral)
Em7   Bm   Am
Na moral!                          (2x)
Em7   Bm   Am
Na moral, na moral (só na moral)
Em7   Bm   Am
Na moral!

Comentários 6

  • Vinicius Vinicius: Postado em 21/09/2014 15:53

    pow uma video aula pra ese solo ai seria legal... show d mas... sem palavras... mas bom ñ tem ne?!

  • leeandrrolima leeandrrolima: Postado em 14/02/2014 18:58

    coloca a cifra certa

  • leeandrrolima leeandrrolima: Postado em 14/02/2014 18:57

    cifra ta errada

  • RodrigoGoncalvesdasChagas1 RodrigoGoncalvesdasChagas1: Postado em 01/08/2013 10:33

    Cara Essa Música Precisa de Vídeo Aula Não!

  • markintadeu markintadeu: Postado em 18/02/2013 14:27

    Video aula pf!

  • pedross pedross: Postado em 29/12/2011 18:22

    ei pessoal do cifra club vcs deviam colocar video aula

Composição: Rogério Flausino, Wilson Sideral, Marco Túlio Lara, Play
Esse não é o compositor? Avise-nos.
Contribuição: gugu Correções: hanshormann , dougkawe e mais 8 »
Exibir acordes »
publicidade
fechar