Na Moral

Jota Quest

 Jota Quest
Tom: F
		
Intro:

E|-----------------|
B|-----------------|
G|--5-----6--------|
D|-----------------|
A|----3------4-----|
E|-----------------|



 (Em7 Bm  Am ) (2x)


 Solo: Em7 Bm  Am
E|--------------------|--------------------------------|
B|----8/10--8-8^10----|-------8-b8---------------------|
G|-/7--------------10-|--7-10------10--7----7~~---10---|
D|--------------------|------------------10------------|
A|--------------------|--------------------------------|
E|--------------------|--------------------------------|




E|--------------------|-10-8--13-15-b15-15-----------13~~-|
B|----8/10--8-8^10----|--------------------15-13-15~~-----|
G|-/7--------------10-|-----------------------------------|
D|--------------------|-----------------------------------|
A|--------------------|-----------------------------------|
E|--------------------|-----------------------------------|



Em7   Bm   Am
Na moral, na moral (só na moral)
Em7   Bm   Am
Na moral!
Em7   Bm   Am
Na moral, na moral (só na moral)
Em7   Bm   Am
Na moral!

Em7   Bm         Am
Vivendo de folia e caos
Em7   Bm         Am
Quebrando tudo, pra variar
Em7   Bm         Am
Vivendo entre o sim e o não
Em7   Bm          Am
Levando tudo na moral
Em7   Bm          Am
Uma manchete de jornal
Em7   Bm          Am
Não vou deixar me abalar
Em7   Bm          Am
Mais uma noite, carnaval
Em7   Bm          Am
No Brasil, só na moral

Em7   Bm   Am
Na moral, na moral (só na moral)
Em7   Bm   Am
Na moral!
Em7   Bm   Am
Na moral, na moral (só na moral)
Em7   Bm   Am
Na moral!

Em7   Bm          Am
Viver entre o medo e a paz
Em7   Bm          Am
Pode fazer pensarmos mais
Em7   Bm          Am
No que a gente tem que fazer
Em7   Bm          Am
Pra ficar vivo, pra variar

Bb           Am          Dm
Quando tudo parece não ter lógica
            Dm
Bombas de amor, tiros de amor, drogas de amor
Bb           Am          Gm
Qualquer paranóia vai virar prazer de viver...

E|-----------------|
B|-----------------|
G|--5-----6--------|
D|-----------------|
A|----3------4-----|
E|-----------------|



Em7   Bm   Am
Na moral, na moral (só na moral)
Em7   Bm   Am
Na moral!
Em7   Bm   Am
Na moral, na moral (só na moral)
Em7   Bm   Am
Na moral!


 ( Em7   Bm   Am ) (2x)
E|--------------------|--------------------------------|
B|----8/10--8-8^10----|-------8-b8---------------------|
G|-/7--------------10-|--7-10------10--7----7~~---10---|
D|--------------------|------------------10------------|
A|--------------------|--------------------------------|
E|--------------------|--------------------------------|



E|--------------------|-10-8--13-15-b15-15-----------13~~-|
B|----8/10--8-8^10----|--------------------15-13-15~~-----|
G|-/7--------------10-|-----------------------------------|
D|--------------------|-----------------------------------|
A|--------------------|-----------------------------------|
E|--------------------|-----------------------------------|


( Em7   Bm   Am )


E|-----------------|
B|-----------------|
G|-----------------|
D|-----------------|
A|----3------4-----|
E|-----------------|



Dm7   Bm   Am
Na moral, na moral (só na moral)
Em7   Bm   Am
Na moral!                          (2x)
Em7   Bm   Am
Na moral, na moral (só na moral)
Em7   Bm   Am
Na moral!
Final:

E|-----------------|
B|-----------------|
G|--------5-6-7~~--|
D|-----------------|
A|--5-3-5----------|
E|-----------------|
Texto Colunas
Alterar tom ½ tom ½ tom
afinação acordes na letra esconder tabs mais »

Comentários (5)

Composição: Rogério Flausino, Wilson Sideral, Marco Túlio Lara, Play
Esse não é o compositor? Avise-nos.
Contribuição: gugu Correções: dougkawe , vitorvascon e mais 5 »
  1. Tudo Que Você Quiser - Luan Santana Manteve-se 5.417 exibições
  2. Lepo Lepo - Psirico Manteve-se 3.901 exibições
  3. Mozão - Lucas Lucco Manteve-se 3.749 exibições
  4. Logo Eu - Jorge e Mateus Manteve-se 3.341 exibições
  5. Gaveta - Fernando e Sorocaba Manteve-se 2.999 exibições
  6. Só Os Loucos Sabem - Charlie Brown Jr. Manteve-se 2.698 exibições
  7. Pra Você - Onze:20 Manteve-se 2.391 exibições
  8. Tempo Perdido - Legião Urbana Manteve-se 2.189 exibições
  9. Fui Fiel - Gusttavo Lima Manteve-se 2.019 exibições
  10. Na Linha do Tempo - Victor e Leo Manteve-se 1.925 exibições
  1. Jorge e Mateus- Manteve-se 20.025 exibições
  2. Legião Urbana- Manteve-se 17.810 exibições
  3. Luan Santana- Manteve-se 15.901 exibições
  4. Charlie Brown Jr.- Manteve-se 15.521 exibições
  5. Fernandinho- Manteve-se 13.364 exibições
  6. Thalles Roberto- Manteve-se 10.046 exibições
  7. Aline Barros- Manteve-se 9.582 exibições
  8. Católicas- Manteve-se 9.431 exibições
  9. Victor e Leo- Manteve-se 9.367 exibições
  10. Gusttavo Lima- Manteve-se 8.996 exibições
Exibir acordes »

Cifras e tabs

Fórum Cifra Club

Aprenda

Cifra Club News

Mais Serviços Cifra Club ID

Studio Sol

©1996 - 2014 Cifra Club · o primeiro, maior e mais acessado do Brasil · 329 mil músicas · 5.9 milhões pessoas cadastradas

publicidade
fechar