Na Moral

Jota Quest

 Jota Quest
Tom: C
		
Intro:

E|-----------------|
B|-----------------|
G|--5-----6--------|
D|-----------------|
A|----3------4-----|
E|-----------------|



 (Em7 Bm  Am ) (2x)


   Solo: Em7 Bm  Am
E|---------------------------------|---------------------------------|
B|----10b12--10p8--10~~--10b11--8~-|-------8~~-----------------------|
G|-/7------------------------------|--7-10------10--7----7~~---10b11-|
D|---------------------------------|------------------10-------------|
A|---------------------------------|---------------------------------|
E|---------------------------------|---------------------------------|




E|---------------------------------|-------------8--10--15--13~-------------13~~-|
B|----10b12--10p8--10~~--10b11--8~-|--11---15/17----------------15--13--15-------|
G|-/7------------------------------|---------------------------------------------|
D|---------------------------------|---------------------------------------------|
A|---------------------------------|---------------------------------------------|
E|---------------------------------|---------------------------------------------|



Em7   Bm   Am
Na moral, na moral (só na moral)
Em7   Bm   Am
Na moral!
Em7   Bm   Am
Na moral, na moral (só na moral)
Em7   Bm   Am
Na moral!

Em7   Bm         Am
Vivendo de folia e caos
Em7   Bm         Am
Quebrando tudo, pra variar
Em7   Bm         Am
Vivendo entre o sim e o não
Em7   Bm          Am
Levando tudo na moral
Em7   Bm          Am
Uma manchete de jornal
Em7   Bm          Am
Não vou deixar me abalar
Em7   Bm          Am
Mais uma noite, carnaval
Em7   Bm          Am
No Brasil, só na moral

Em7   Bm   Am
Na moral, na moral (só na moral)
Em7   Bm   Am
Na moral!
Em7   Bm   Am
Na moral, na moral (só na moral)
Em7   Bm   Am
Na moral!

Em7   Bm          Am
Viver entre o medo e a paz
Em7   Bm          Am
Pode fazer pensarmos mais
Em7   Bm          Am
No que a gente tem que fazer
Em7   Bm          Am
Pra ficar vivo, pra variar

C           D          Em7
Quando tudo parece não ter lógica
            Em7
Bombas de amor, tiros de amor, drogas de amor
C           D          Em7                C           D
Qualquer paranóia vai virar prazer de viver...



Em7   Bm   Am
Na moral, na moral (só na moral)
Em7   Bm   Am
Na moral!
Em7   Bm   Am
Na moral, na moral (só na moral)
Em7   Bm   Am
Na moral!


   ( Em7   Bm   Am ) (2x)
E|---------------------------------|---------------------------------|
B|----10b12--10p8--10~~--10b11--8~-|-------8~~-----------------------|
G|-/7------------------------------|--7-10------10--7----7~~---10b11-|
D|---------------------------------|------------------10-------------|
A|---------------------------------|---------------------------------|
E|---------------------------------|---------------------------------|




E|---------------------------------|-------------8--10--15--13~-------------13~~-|
B|----10b12--10p8--10~~--10b11--8~-|--11---15/17----------------15--13--15-------|
G|-/7------------------------------|---------------------------------------------|
D|---------------------------------|---------------------------------------------|
A|---------------------------------|---------------------------------------------|
E|---------------------------------|---------------------------------------------|


( Em7   Bm   Am )


E|-----------------|
B|-----------------|
G|-----------------|
D|-----------------|
A|----3------4-----|
E|-----------------|



Dm7   Bm   Am
Na moral, na moral (só na moral)
Em7   Bm   Am
Na moral!                          (2x)
Em7   Bm   Am
Na moral, na moral (só na moral)
Em7   Bm   Am
Na moral!
Final:

E|-----------------|
B|-----------------|
G|--------5-6-7~~--|
D|-----------------|
A|--5-3-5----------|
E|-----------------|
Texto Colunas
Alterar tom ½ tom ½ tom
afinação acordes na letra esconder tabs mais »

Comentários 5

Composição: Rogério Flausino, Wilson Sideral, Marco Túlio Lara, Play
Esse não é o compositor? Avise-nos.
Contribuição: gugu Correções: ceor10 , luizdepieri e mais 7 »
  1. Domingo de Manhã - Marcos e Belutti Manteve-se 102.611 exibições
  2. Logo Eu - Jorge e Mateus Manteve-se 45.047 exibições
  3. Maus Bocados - Cristiano Araújo Manteve-se 44.150 exibições
  4. Não Vai Voltar - Onze:20 Manteve-se 44.106 exibições
  5. Recaídas - Henrique e Juliano Manteve-se 41.761 exibições
  6. Pra Você - Onze:20 Manteve-se 41.310 exibições
  7. Só Os Loucos Sabem - Charlie Brown Jr. Manteve-se 30.931 exibições
  8. Mulher - Projota Manteve-se 29.282 exibições
  9. Calma - Jorge e Mateus Manteve-se 29.019 exibições
  10. Pais e Filhos - Legião Urbana Manteve-se 28.443 exibições
  1. Jorge e Mateus- Manteve-se 295.980 exibições
  2. Legião Urbana- Manteve-se 214.972 exibições
  3. Charlie Brown Jr.- Manteve-se 148.914 exibições
  4. Marcos e Belutti- Manteve-se 126.406 exibições
  5. Fernandinho- Manteve-se 121.084 exibições
  6. Henrique e Juliano- Manteve-se 113.800 exibições
  7. Onze:20- Manteve-se 108.406 exibições
  8. Bruno e Marrone- Manteve-se 105.937 exibições
  9. Luan Santana- Manteve-se 93.773 exibições
  10. Thalles Roberto- Manteve-se 91.325 exibições
Exibir acordes »

Cifras e tabs

Fórum Cifra Club

Aprenda

Cifra Club News

Mais Serviços Cifra Club ID

Studio Sol

©1996 - 2014 Cifra Club · o primeiro, maior e mais acessado do Brasil · 335 mil músicas · 6.2 milhões pessoas cadastradas

publicidade
fechar