Vou Deixar Na Cruz

Kleber Lucas

 Kleber Lucas Compositor: Kleber Lucas
Tom: F
		
Intro: Dm Bb9 F/A C Dm Bb9 F/A

F9
Sua morte ali na cruz
F7M
Carregando a minha dor
Bb9
Você se expôs por mim
F9
Se entregou em meu lugar
F7M
E me deu uma nova chance
Bb9
Eu vou recomeçar

              Dm7                Bb9
Vou deixar na cruz tudo o que passou
            F/A          C9
Tudo o que ficou pra trás
           Dm7               Bb9
Olho pra você, corro pra Você
          F/A        F
O Seu amor me chama

      C9                 Gm7                   F
Eu dependo desse amor, do Seu amor mais que tudo
      C9                  Gm7                   F
Eu confio que esse amor tem poder pra curar dores


Solo guitarra: C Gm F (2x)


E|------------------------------------
A|------------------------------------
D|------------------------------------
G|--------17~-------------------------
B|---------------------15~--15/18\13--
E|--16b------15-15/16-----------------



E|---------------------------------
A|---------------------------------
D|---------------------------------
G|-10-10-10-10-10-10-10-10--5-5~---
B|-10-11-10-8--10-11-10-8----------
E|---------------------------------



E|-------------------------------------------
A|-------------------------------------------
D|-------------------------------------------
G|-------------------------------------------
B|-15b-------15~-13-15/18--15--8-10-11-10-~~-
E|-----12-13---------------------------------

              Dm                 Bb9
Vou deixar na cruz tudo o que passou
            F/A           C
Tudo o que ficou pra trás
           Dm              Bb9
Olho pra você, corro pra Você
            F/A
O Seu amor me chama

solo original

Comentários 14

  • joass.rsj joass.rsj: Postado em 19/04/2014 23:47

    usem F/A com a pestana na 5° casa fica melhor ke esse aew

  • jhekson jhekson: Postado em 26/01/2014 12:09

    linda cancao! temos que deixar na cruz tudo que passou !

  • jhekson jhekson: Postado em 26/01/2014 12:08

    li

  • Sidney Sidney: Postado em 28/12/2013 16:10

    muito linda...

  • RodrigoGoncalvesdasChagas1 RodrigoGoncalvesdasChagas1: Postado em 04/09/2013 09:58

    Música Boa e Fácil!

  • martade jesus chaves martade jesus chaves: Postado em 24/08/2013 21:34

    linda musica! que pena ainda não estou tocando perfeitamente.... mas eu chego lá!

  • silas silas: Postado em 10/07/2013 16:34

    curti bastante essa mustca

  • Jefferson Jefferson: Postado em 03/07/2013 19:45

    Já concertei o solo !

  • martins33 martins33: Postado em 15/06/2013 19:41

    belezaa muito bom!!!

Exibindo 10 de 14 comentários Mostrar mais ver todos »
Composição: Kleber Lucas Valmir Bessa e Duda Andrade
Esse não é o compositor? Avise-nos.
Contribuição: zinho Correções: Claudio Roberto , Isis e mais 17 »
Exibir acordes »
publicidade
fechar