Cifra Club

Vou Deixar Na Cruz

Kleber Lucas

Cifra: Principal
exibições 815.244
Tom: F
Intro: Dm  Bb9  F  C  Dm7  Bb9  F

E|-------------------------------------------------------------|
B|-6-5----------6-5----------6-5-------------------------------|
G|-------5-5h7--------5-5h5------5---77/10--9h10--10--10/12----|
D|-----7------------7--------------7---------------------------|
A|-------------------------------------------------------------|
E|-------------------------------------------------------------|

E|-------------------------------------------------------------|
B|-6-5----------6-5-----------------------6~--10h11------------|
G|-------5-5h7--------5-5h5---------6--8-----------------------|
D|-----7------------7---------5--7-----------------------------|
A|-------------------------------------------------------------|
E|-------------------------------------------------------------|

F9
Sua morte ali na cruz

Carregando a minha dor
Bb9
Você se expôs por mim
F9
Se entregou em meu lugar

E me deu uma nova chance
Bb9
Eu vou recomeçar

              Dm7                Bb9
Vou deixar na cruz tudo o que passou
            F          C9
Tudo o que ficou pra trás
           Dm7               Bb9
Olho pra você, corro pra Você
          F        F
O Seu amor me chama

      C9                 Gm                   F
Eu dependo desse amor, do Seu amor mais que tudo
      C9                  Gm                   F
Eu confio que esse amor tem poder pra curar dores


  Solo guitarra: C9 Gm F (2x)
E|---18b---------17-17b------------------------------------------------------------|
B|-----------------------15-15~---15/18\13~------8h10-8----8-10-10/11-10-----------|
G|---------17-17--------------------------------10------10---10-10----10---5-5ah---|
D|---------------------------------------------------------------------------------|
A|---------------------------------------------------------------------------------|
E|---------------------------------------------------------------------------------|

E|--------12-13--------------------------------------------------------------------|
B|---15b---------15b---------13-15-15b--15~-----8-10-10/11-10~---------------------|
G|---------------------12/14-------------------------------------------------------|
D|---------------------------------------------------------------------------------|
A|---------------------------------------------------------------------------------|
E|---------------------------------------------------------------------------------|

              Dm7                Bb9
Vou deixar na cruz tudo o que passou
            F           C9
Tudo o que ficou pra trás
           Dm7             Bb9
Olho pra você, corro pra Você
            F
O Seu amor me chama

0 comentários

    mostrar mais comentários

    Conseguiu tocar?

    68tocaram7ainda não

    Grave um vídeo tocando Vou Deixar Na Cruz e mande pra gente!

    00:00 / 00:00
    outros vídeos desta música
    repetirqualidadeautomática
    Outro vídeos desta música
      00:00 / 00:00
      automática
      OK