Embrace

Korn

 Korn
Tom: A
		
Tuning: 1 Step Down (A,D,G,C,F,A,D)
INTRO:

|-----------------------|
|-----------------------|
|-----------------------|
|-----------------------|
|-----------------------|
|---5-5/9-9---5-5/10-10-|
|-3---------3-----------|


INTRO 2:

|------------|
|------------|
|------------|
|------------|
|------------|
|-3-2--2-2-2-|
|-1-0--0-0-0-|


VERSE:

|----------|
|----------|
|----------|
|----------|
|----------|
|-3-2--2-2-|
|-1-0--0-0-|


BRIDGE: (guitar 1)

|--------------------------------------|
|--------------------------------------|
|--------------------------------------|
|--------------------------------------|
|---5/6\5-5/6----------5/6\5-5/6-------|
|-----------------2--------------------|
|-3-----------3-4----3-----------3-6-4-|



|--------------------------------------|
|--------------------------------------|
|--------------------------------------|
|--------------------------------------|
|---5/6\5-5/6----------5/6\5-5/6-----6-|
|-----------------2----------------5---|
|-3-----------3-4----3-----------3-----|


BRIDGE: (guitar 2) (trem. - tremolo pick)

|----------------------|    |--------------------------------|
|----------------------|    |--------------------------------|
|-14(trem.)--13(trem.)-|play|-14(trem.)--13(trem.)-19(trem.)-|
|--X----------X--------| 3X |--X----------X---------X--------|
|-12---------11--------|then|-12---------11--------17--------|
|----------------------|    |--------------------------------|
|----------------------|    |--------------------------------|


CHORUS:

|------------------|
|------------------|
|------------------|
|-10-9-8-----------|
|-10-9-8-------8-7-|
|--8-7-6-5h6p5-8-7-|
|--------------6-5-|


INTERLUDE:

|-----------------------------------|
|-----------------------------------|
|-10(tremolo pick)--7(tremolo pick)-|
|--X----------------X---------------|
|--8----------------5---------------|
|-----------------------------------|
|-----------------------------------|

Comentários 0

Composição: Korn
Esse não é o compositor? Avise-nos.
Contribuição: CAU
Consegui tocarAinda não conseguiram tocar essa música. Seja o primeiro!
    Não consegui tocar
    Exibir acordes »
    publicidade
    fechar