American Woman

Led Zeppelin

 Led Zeppelin Compositor: Led Zeppelin
Tom: A
		
riff 1

D|----------3--3--2--2--1--1--0--|
B|----------3--3--2--2--1--1--0--|
G|--12------4--4--3--3--2--2--0--|
D|--12---------------------------|
G|--12---------------------------|
D|-------------------------------|


riff 2

|------------------------|--3--3--2--2--1--1--0--|
|------------------------|--3--3--2--2--1--1--0--|
|------------------------|--4--4--3--3--2--2--0--|play 4 times
|--0--2--0-0--0--2--0-0--|-----------------------|
|--0--0--0-0--0--0--0-0--|-----------------------|
|------------------------|-----------------------|


riff 3

|------------------------|--0-0--5--3--0--|
|------------------------|--0-0--5--3--0--|
|------------------------|--0-0--5--3--0--| play 3 times
|--0--2--0-0--0--2--0-0--|--0-0--5--3--0--|
|--0--0--0-0--0--0--0-0--|-------------0--|
|-----------------------------------------|


riff 4

|----------12-12-12-12--|--0-0--5--3--0--|
|----------12-12-12-12--|--0-0--5--3--0--|
|----------12-12-12-12--|--0-0--5--3--0--| play 4 times
|----2-----12-12-12-12--|--0-0--5--3--0--|
|--0---0----------------|-------------0--|
|-----------------------|----------------|


riff 5

|----------12-12-12-12--|------3--3--2--2--1--1--0--|
|----------12-12-12-12--|------3--3--2--2--1--1--0--|
|----------12-12-12-12--|------4--4--3--3--2--2--0--|
|----2-----12-12-12-12--|--0------------------------|
|--0---0----------------|--0------------------------|
|-----------------------|---------------------------|


riff 6

|--4-7-7/9-999-99-99|4-7-7/9-999-99--|
|--4-7-7/9-999-99-99|4-7-7/9-999-99--|
|--4-7-7/9-999-99-99|4-7-7/9-999-99--| play 2 times
|--4-7-7/9-999-99-99|4-7-7/9-999-99--|
|--4-7-7/9-999-99-99|4-7-7/9-999-99--|
|--4-7-7/9-999-99-99|4-7-7/9-999-99--|



guitar 2 I

|--------|---------------|-------------------|--18-----------|
|--------|---------------|-------15----------|--------14-15--|
|--9-11--|--11s13-13h14--|--1416-------12h13-|-----16--------|
|--------|---------------|----------14-------|---------------|
|--------|---------------|-------------------|---------------|
|--------|---------------|-------------------|---------------|


riff 7

|--4-7-7/9-999-99-99|
|--4-7-7/9-999-99-99|
|--4-7-7/9-999-99-99| play hundred times
|--4-7-7/9-999-99-99|
|--4-7-7/9-999-99-99|
|--4-7-7/9-999-99-99|


guitar 2 II

|--------|---------------|-------------------|--17-----------|
|--------|---------------|-------15----------|--------14-15--|
|--9-11--|--11s13-13h14--|--1416-------12h13-|-----16--------|
|--------|---------------|----------14-------|---------------|
|--------|---------------|-------------------|---------------|
|--------|---------------|-------------------|---------------|


guitar 2 III

|------------|-------|--------------|-------|----------------|--------------------|
|------------|-------|--------------|-------|----------------|--14b---15----------|
|--11b--11b--|--11b--|--11bp9-11-9--|--14b--|--14bp12-14-12--|-------------12-13--|
|------------|-------|--------------|-------|----------------|----------14--------|
|------------|-------|--------------|-------|----------------|--------------------|
|------------|-------|--------------|-------|----------------|--------------------|



|-------------------|---------------------|-----------------|---------------15-17--|
|--14b-14b-14b-14b--|--14b---15-----------|--1516-17-17-17--|--15h17--17-17--------|
|-------------------|--------------12-13--|-----------------|----------------------|
|-------------------|-----------14--------|-----------------|----------------------|
|-------------------|---------------------|-----------------|----------------------|
|-------------------|---------------------|-----------------|----------------------|



|--17b-17b-17b-15-17--|--15b--------------------|-----------|--------------|
|---------------------|------17--1517p15-14-12--|-----------|-------12-14--|
|---------------------|-------------------------|--14b-14b--|--14b---------|
|---------------------|-------------------------|-----------|--------------|
|---------------------|-------------------------|-----------|--------------|
|---------------------|-------------------------|-----------|--------------|



|----------------------|------------------|----------|
|--14b-1214-12--12-14--|--14b---14b-1214--|--14h17---|
|----------------------|------------------|----------|
|----------------------|------------------|----------|
|----------------------|------------------|----------|
|----------------------|------------------|----------|


riff 8

|--7/9-999-99/0--|
|--7/9-999-99/0--|
|--7/9-999-99/0--|
|--7/9-999-99/0--|
|--7/9-999-99/0--|
|--7/9-999-99/0--|


guitar 2 IV

|------------|-------------12-14b-12-14--|--12---------------------|------|
|--14b-1214--|--12---12-14---------------|--------12-14-14b-12-14--|--12--|
|------------|---------------------------|-------------------------|------|
|------------|---------------------------|-------------------------|------|
|------------|---------------------------|-------------------------|------|
|------------|---------------------------|-------------------------|------|



|--12---------|---------12--|---------12--|---------15b--|------------15b--|
|-------------|-------------|-------------|--------------|--12--14-15------|
|-----12b-----|--12b--------|--12b--------|--12b---------|-----------------|
|---------14--|------14-----|------14-----|------14------|-----------------|
|-------------|-------------|-------------|--------------|-----------------|
|-------------|-------------|-------------|--------------|-----------------|



|--------------15b--|---------------------------|--15b-----19b--|--19b--17h19-17--|
|--12--12-12b-------|--14b--12h14-12--14p12-14--|------14b------|-----------------|
|-------------------|---------------------------|---------------|-----------------|
|-------------------|---------------------------|---------------|-----------------|
|-------------------|---------------------------|---------------|-----------------|
|-------------------|---------------------------|---------------|-----------------|



|--16----17-16--|--17-16-14--|--12---------|------------------|--------------------16----15-16--|
|-----19--------|------------|------12-14--|--14b--14b-12-14--|--15-1414b14p121412----17--------|
|---------------|------------|-------------|------------------|---------------------------------|
|---------------|------------|-------------|------------------|---------------------------------|
|---------------|------------|-------------|------------------|---------------------------------|
|---------------|------------|-------------|------------------|---------------------------------|



Led Zeppelin 

American woman

Song progress:

-riff 1
-riff 2 x4
-riff 3 x3
-riff 4 x4
-riff 5
-riff 2 x3
-riff 6 x2
-riff 6 x2 + guitar 2 I
-riff 7 ...
-riff 7 ... + guitar 2 II
-riff 7 ... + guitar 2 III
-riff 8 x4
-riff 7 ... + guitar 2 IV

| /  slide up
| \  slide down
| h  hammer-on
| p  pull-off
| ~  vibrato
| +  harmonic
| x  Mute note
19.528 exibições

Comentários 0

Consegui tocarAinda não conseguiram tocar essa música. Seja o primeiro!
    Não consegui tocar
    Exibir acordes »
    publicidade
    fechar