Castle Of Glass

Linkin Park

 Linkin Park
		
Intro: C#m E B F#m (3x)
       E B C#m

G|----------|        G|--------|
D|---2------| (3x)   D|-2------|
A|-4---2----|        A|---2-4--|
E|-------2--|        E|--------|


Verso 1 e 2

G|------------------|
D|------------------|
A|-4----4----2----4-|
E|------------------|

Take me down to the river bend,
Take me down to the fighting end,
Wash the poison from off my skin
Show me how to be whole again

Fly me up on a silver wing
Past the black where the siren sing
Warm me up in a nova's glow
And drop me down to the dream below


Refrão:


G|------------------------------------|
D|----2------------2----------2-------|
A|-------2--4---------2----4-----2----|
E|-2------------2-------------------2-|


Cause I'm only a crack in this castle of glass
Hardly anything left for you to see.
For you to see



(C#m E B F#m C#m E B F#m)

G|-------------------|
D|---2--------2------|
A|-4---2----4---2----|
E|-------2--------2--|



Verso 3

G|------------------|
D|------------------|
A|-4----4----2----4-|
E|------------------|

Bring me home in blinding dream
Through the secrets that I have seen
Wash the sorrow from off my skin
And show me how to be whole again


Refrão:


G|------------------------------------|
D|----2------------2----------2-------|
A|-------2--4---------2----4-----2----|
E|-2------------2-------------------2-|


Cause I'm only a crack in this castle of glass
Hardly anything left for you to see.
For you to see



( C#m E B F#m C#m E B F#m )


G|-------------------|
D|---2--------2------|
A|-4---2----4---2----|
E|-------2--------2--|



Refrão:


G|------------------------------------|
D|----2------------2----------2-------|
A|-------2--4---------2----4-----2----|
E|-2------------2-------------------2-|
    
Cause I'm only a crack in this castle of glass
Hardly anything else I need to be
Cause I'm only a crack in this castle of glass
Hardly anything left for you to see.
For you to see



( C#m E B F#m ) (3x)

G|----------|
D|---2------| (3x)
A|-4---2----|
E|-------2--|

Comentários 0

Composição: Chester Bennington / Chico Buarque / Lamar Hula Mahone / Linkin Park / Mike Shinoda / Rone Costa
Esse não é o compositor? Avise-nos.
Contribuição: DesA
publicidade
fechar