Último Romance

Los Hermanos

 Los Hermanos
Intro e base:
G|-------------------|----------------|-------------------|-----------|
D|-10----------------|-10-------------|-10----------------|-----------|
A|----10h12--10h12---|----10h12-------|----10h12--10h12---|-----------|
E|-----------------10|----------------|-----------------10|-3-3~-4-4~-|

Bases '...e até quem me vê...' e '...e só de te ver...' (3x)
G|-----------------|-----------|
D|-----------------| ----------|
A|----/12----/5-5--|-----------|
E|-5---------------|-3-3~-4-4~-|  *décima segunda casa

Pré-refrões '...Ninguem dirá...' e '...Pra qualquer lugar....' 
G|--------------------------------------------------|
D|-10-10------10-10--------------9---9-9------------|
A|---------10---------10-12-12-----9-----------5-5~-|
E|-----------------------------------------0-0~-----|

G---------------------------------------------------|
D|-10-10------10-10--------------9---9-9------------|
A|---------10---------10-12-12-----9-----------5-5~-|
E|-----------------------------------------0-0~-----|

Refrão: ...Ah vai... (4x)
G|--------------------------|
D|--------------------------|
A|-7-7~--5-5~----5-5~-66666-|
E|-----------5-5~-----------|

Repete intro (1x)
Repete base

instrumental após '...se aventurar!'                     (...ah vai...)
G|-------------|------------|----------------|-------------|
D|-------------|------------|----------------|-------------|
A|------7------|------7-----|-2-2----5-2~--/2|-------66666-|
E|-5-5----8-5~-|-5-5----8-5~|------2---------|-77777-------|

Refrão (3x)
Ultimo verso de refrão '...eu sigo essa hora...'
G|--------------------------------------|
D|------------------------------------7-|
A|-7-7~--5-5~------5-5~-----------------|
E|-------------5-5~--------5--5-5-5-5---|

Pausa '...pra te acompanhar...'

Repete pré-refrão até o final.

Comentários 1

Composição: Biagio Antonacci / N. Rodgers / Rouge
Esse não é o compositor? Avise-nos.
Contribuição: lgzn Correções: victor e mais 2 »
publicidade
fechar