Simple Man

Lynyrd Skynyrd

 Lynyrd Skynyrd
Tom: C
Afinação: Eb Ab Db Gb Bb Eb
		
Intro 4x / Verso:

                C                          G
D|--------|---------------------------|---------------------------|
A|--------|---------------1-----------|---------------------------|
F|--------|.-----0-----------0-----0--|--------------0------------|
C|--------|.--------2-----------2-----|-----0-----------0-----0---|
G|--0--2--|---3--------3--------------|--------2-----------2------|
D|--------|---------------------------|--3--------3---------------|


       Am
D|---------------------------|--------------3------------|
A|---------------1-----------|-----1-----------1---------|
F|------2-----------2-----2--|--------2-----------------.|
C|---------2-----------2-----|-----------2--------------.|
G|---0--------0--------------|--0-----------------0--2---|
D|---------------------------|---------------------------|


Ponte:

                 C                      G
D|--------|-----------------------|------------------------|
A|--------|-----------------------|------------------------|
F|--------|.--5-------------------|------------------------|
C|--------|.--5-------------------|--5---------------------|
G|--0--2--|---3-----3-/-5--3--0---|--5------3-/-5--3-------|
D|--------|-----------------------|--3-----------------3---|


         Am7
D|------------------|-----------------|
A|------------------|-----------------|
F|------------------|----------------.|
C|--7---------------|--7-------------.|
G|--7---------------|--7-------0--2---|
D|--5---------0--3--|--5--------------|



     C        G                Am
My Moma told me, when I was young,
	  C        G         Am
Come sit be side me, my only son.
	   C     G          Am
And listen closely,to what I say.
       C         G                             Am
and if you do this,it will help you some sunny day

     C        G                Am
Take your time, don't live too fast
     C        G                Am
Troubles will come and they will pass
     C        G                Am
Go find a woman and you'll find love
     C        G                Am
And don't forget, son there is someone up above

Refrão:
        C      G         Am
And be a simple kind of man,
	   C    G                   Am
And be something, you love and understand,
	C   G           Am
Be a simple, be a simple man,
          C           G              Am
Wont yout do this for me son, if you can?

     C        G                Am
Forget your lust for the rich man's gold
     C        G                Am
All that you need is in your soul
     C        G                Am
And you can do this if you try
     C        G                Am
All that I want for you my son? Is to be satisfied

(Refrão)

     C        G                Am
Boy, don't you worry, you'll find yourself
     C        G                Am
Follow you heart and nothing else
     C        G                Am
And you can do this if you try
     C        G                Am
All I want for you my son is to be satisfied

(Refrão)

     C        G                Am
Baby, be a simple man
     C        G                Am
Be something you love and understand
     C        G                Am
Baby, be a simple man

Final: C  G  Am  F  C  G  Am
Texto Colunas
Alterar tom ½ tom ½ tom
afinação acordes na letra esconder tabs mais »

Comentários 43

  • Danilo Danilo: Postado em 28/07/2014 18:16

    CADE A VIDEO AULA DESTE CLÁSSICO?????

  • Fernando Fernando: Postado em 22/12/2013 15:30

    Vídeo-Aula por favor

  • ironmaiden12 ironmaiden12: Postado em 08/12/2013 21:17

    Será que um dia vai ter vídeo aula ou esse grande clássico vai continuar "perdendo" pra " Gatinha assanhada cê tá querendo o quê" ?

  • soldier93 soldier93: Postado em 23/11/2013 01:12

    Sério que não tem vídeo aula? Várias porcarias de música com vídeo aula e as que realmente merecem ficam aqui esquecidas...

  • mattlara mattlara: Postado em 03/10/2013 18:07

    Aula da anitta fazem, mas Lynyrd Skynyrd não...

  • xfelipe98 xfelipe98: Postado em 18/09/2013 21:13

    Vídeo aula..essa musica merece

  • Jose pedro Jose pedro: Postado em 02/09/2013 18:20

    videoaula

  • niuulook niuulook: Postado em 07/08/2013 23:42

    Faltando video aula !

  • lucas.linkinpark4ever lucas.linkinpark4ever: Postado em 08/05/2013 14:42

    Essa música merece uma vídeo aula...

  • MatheusM. MatheusM.: Postado em 04/04/2013 12:44

    video aula ai cade cade? alguém ? kkk poxa cifra club ... -1 pontinho rs

Exibindo 10 de 43 comentários Mostrar mais ver todos »
Composição: Ben Robbins / Gary Rossington / Hayes / Pio Medrado / Ronnie Van Zant
Esse não é o compositor? Avise-nos.
Contribuição: jefferson airplane Correções: crunch , fortes e mais 4 »
  1. Domingo de Manhã - Marcos e Belutti Manteve-se 100.836 exibições
  2. Pra Você - Onze:20 Manteve-se 48.654 exibições
  3. Logo Eu - Jorge e Mateus Manteve-se 45.265 exibições
  4. Até Você Voltar - Henrique e Juliano Manteve-se 45.116 exibições
  5. Recaídas - Henrique e Juliano Manteve-se 41.402 exibições
  6. Evidências - Chitãozinho & Xororó Manteve-se 33.815 exibições
  7. Só Os Loucos Sabem - Charlie Brown Jr. Manteve-se 31.871 exibições
  8. Pais e Filhos - Legião Urbana Manteve-se 29.339 exibições
  9. Give Me Love - Ed Sheeran Manteve-se 29.011 exibições
  10. Aonde Quer Que Eu Vá - Os Paralamas do Sucesso Manteve-se 27.784 exibições
  1. Jorge e Mateus- Manteve-se 262.750 exibições
  2. Legião Urbana- Manteve-se 207.302 exibições
  3. Henrique e Juliano- Manteve-se 173.017 exibições
  4. Charlie Brown Jr.- Manteve-se 152.985 exibições
  5. Bruno e Marrone- Manteve-se 125.687 exibições
  6. Marcos e Belutti- Manteve-se 123.547 exibições
  7. Fernandinho- Manteve-se 118.546 exibições
  8. Luan Santana- Manteve-se 107.631 exibições
  9. Thalles Roberto- Manteve-se 94.284 exibições
  10. Victor e Leo- Manteve-se 92.668 exibições
Exibir acordes »

Cifras e tabs

Fórum Cifra Club

Aprenda

Cifra Club News

Mais Serviços Cifra Club ID

Studio Sol

©1996 - 2014 Cifra Club · o primeiro, maior e mais acessado do Brasil · 337 mil músicas · 6.2 milhões pessoas cadastradas

publicidade
fechar