Robocop Gay

Mamonas Assassinas

 Mamonas Assassinas
Tom: C
		
(intro) C   G   C

(com distorção)

E|-----------------------------------------------------|-------------------------------------|
B|-13/15-15-15-13/15-15-15-13/15-15---15---------------|-15--15--15--15----------------------|
G|-12/14-14-14-12/14-14-14-12/14-14---14b-14-----------|-14b-14b-14b-14-12-14~~--------------|
D|--------------------------------------------12-14----|-------------------------------------|
A|--------------------------------------------------15-|-------------------------------------|
E|-----------------------------------------------------|-------------------------------------|



E|----------------------------------------------------|-------------------------------------|
B|-----------------------15-12-----------------13\----|--13--13--13\------------------------|
G|-----------------12-14-------14-12----12--14--------|--12--12--12\------------------------|
D|-----------12-14------------------14----------------|-------------------------------------|
A|-----12-14------------------------------------------|-------------------------------------|
E|12-14-----------------------------------------------|-------------------------------------|


                 C
Um tanto quanto másculo
         G
Com m maiúsculo,

Vejam só os meus músculos
                   C
Que com amor cultivei

Minha pistola é de plástico
                G
E em formato cilíndrico

Sempre me chamam de cínico,
                     C
Mas o porquê eu não sei

O meu bumbum era flácido,
                        G
Mas esse assunto é tão místico,

Devido ao ato cirúrgico
                    C
Hoje eu me transformei

O meu andar é erótico,
                 G
Com movimentos atômicos

Sou um amante robótico
                C
Com direito a replay

Um ser humano fantástico
               G
Com poderes titânicos

Foi um moreno simpático
                   C
Por quem me apaixonei

E hoje estou tão eufórico
                  G
Com mil pedaços biônicos

Ontem eu era católico
                    C
Ai, hoje eu sou um gay!!

Base ( C G Am F )


E|---------------------------------------------------------------------|
B|-8-6--6-8-6-----6-5---5-6-5---------------------8b-10b-10b-10b-10b-8-|
G|-----9------9~~-----7-------7~~-7b-5~~-----5~~-----------------------|
D|---------------------------------------5-7---------------------------|
A|---------------------------------------------------------------------|
E|---------------------------------------------------------------------|


          C
Abra sua mente
              G
Gay também é gente
             Am
Baiano fala oxente
           F
E come vatapá

               C
Você pode ser gótico
                 G
Ser punk ou skinhead
                  Am
Tem gay que é muhamed
              F
Tentando camuflar, (allah, meu bom allah)

            C
Faça bem a barba
               G
Arranque seu bigode
              Am
Gaúcho também pode
                   F
Não tem que disfarçar

Base ( C G Am F )

(solo)

E|---------------------------------------------------------------|
B|-8-6--6-8-6-----6-5---5-6-5---------------------8b-8b-8b-8b-8--|
G|-----9------9~~-----7-------7~~-7b-5~~-----5~9~----------------|
D|---------------------------------------5-7---------------------|
A|---------------------------------------------------------------|
E|---------------------------------------------------------------|


          C
Faça uma plástica
               G
Ai entre na ginástica
            Am
Boneca cibernética
            F
Um robocop gay

(solo final - junto com este verso abaixo)

E|-20-------------------20-----------------20----17---15--------------15------------------------|
B|----17-----18-19-----------17----18-19------------------12--13-15--------12----13-15---12-----|
G|--17----17----------17---17---17-------17---17---17---12--12------12---12---12-------12---12--|
D|----------------------------------------------------------------------------------------------|
A|----------------------------------------------------------------------------------------------|
E|----------------------------------------------------------------------------------------------|

    (tapping)                                    (arraste a palheta)

E|-17--12-15-17--12-15-17-12-15-17-12~~--|--------------------------------------------|
B|---------------------------------------|--------------------------------------------|
G|---------------------------------------|--------------------------------------------|
D|---------------------------------------|--------------------------------------------|
A|---------------------------------------|--------------------------------------------|
E|---------------------------------------|---x\-x\-x\-x\-x\-x\-x\-x\-x\-x\------------|


      C
Um robocop gay
            G
Um robocop gay
               Am
Ai eu sei, eu sei
            F  C
Um robocop gay

Ai como doí.

(riffs)

      C                     G
E|----8---|         e|--------|
B|----8---|         b|---8----|
G|--------|         g|---7----|
D|--------|         d|--------|
A|--------|         a|--------|
E|--------|         e|--------|


B= bend; /=slide; ~=trêmulo;

Úsh
Texto Colunas
Alterar tom ½ tom ½ tom
afinação acordes na letra esconder tabs mais »

Comentários 44

  • Harrison Harrison: Postado em 07/06/2014 10:38

    vídeo aula pf, nós precisamos!!

  • Denis Denis: Postado em 28/03/2014 08:21

    video aula com tab pf

  • daniel daniel: Postado em 01/12/2013 20:03

    video aula ai cifra pf

  • raffamarinho raffamarinho: Postado em 13/07/2013 11:41

    o ritmo inicial é o mesmo de Sábado de Sol e de Pelados em Santos-versão simplificada,do youtube,depois bbbcbc começa em abra sua mente

  • sazuke21 sazuke21: Postado em 23/02/2013 16:23

    muito boa msm.... concordo mamonas eternamente...

  • sazuke21 sazuke21: Postado em 23/02/2013 16:18

    muito boa.... concordo mamonas eternamente...

  • samnightmare samnightmare: Postado em 03/11/2012 23:15

    fácil fácil

  • sllyn sllyn: Postado em 09/10/2012 00:03

    fácil ...mamonas eternos.

Exibindo 10 de 44 comentários Mostrar mais ver todos »
Composição: Dinho / Júlio Rasec
Esse não é o compositor? Avise-nos.
Contribuição: Anderson Correções: lucas_punk , lucasdniz e mais 11 »
  1. Domingo de Manhã - Marcos e Belutti Manteve-se 98.258 exibições
  2. Até Você Voltar - Henrique e Juliano Manteve-se 53.974 exibições
  3. Pra Você - Onze:20 Manteve-se 50.133 exibições
  4. Recaídas - Henrique e Juliano Manteve-se 41.598 exibições
  5. Logo Eu - Jorge e Mateus Manteve-se 40.596 exibições
  6. Evidências - Chitãozinho & Xororó Manteve-se 37.100 exibições
  7. Só Os Loucos Sabem - Charlie Brown Jr. Manteve-se 31.698 exibições
  8. Give Me Love - Ed Sheeran Manteve-se 30.072 exibições
  9. Cuida Bem Dela - Henrique e Juliano Manteve-se 29.719 exibições
  10. Pais e Filhos - Legião Urbana Manteve-se 29.263 exibições
  1. Jorge e Mateus- Manteve-se 252.870 exibições
  2. Legião Urbana- Manteve-se 210.599 exibições
  3. Henrique e Juliano- Manteve-se 188.337 exibições
  4. Charlie Brown Jr.- Manteve-se 151.539 exibições
  5. Bruno e Marrone- Manteve-se 138.471 exibições
  6. Marcos e Belutti- Manteve-se 120.396 exibições
  7. Fernandinho- Manteve-se 119.285 exibições
  8. Luan Santana- Manteve-se 108.496 exibições
  9. Thalles Roberto- Manteve-se 94.265 exibições
  10. Victor e Leo- Manteve-se 92.036 exibições
Exibir acordes »

Cifras e tabs

Fórum Cifra Club

Aprenda

Cifra Club News

Mais Serviços Cifra Club ID

Studio Sol

©1996 - 2014 Cifra Club · o primeiro, maior e mais acessado do Brasil · 337 mil músicas · 6.2 milhões pessoas cadastradas

publicidade
fechar