Mundo Animal

Mamonas Assassinas

 Mamonas Assassinas
Tom: A
		
(intro)


      E5          D5
E|------------------------------------------|
B|------------------------------------------|
G|--------9-----9-----7-----7---------------|
D|----9-9-9-9-9-9-7-7-7-7-7-7---------------|
A|----7-7-7-7-7-7-5-5-5-5-5-5---------------|
E|----0-0-0-0-0-0-0-0-0-0-0-0---------------|


(1ª e 2ª vez)

E|------------------------------------------|
B|-----5~-------5~--------------------------|
G|-----5~-------5~--------------------------|
D|-5h7---7\-5h7---7\-5-7\-------------------|
A|------------------------------------------|
E|------------------------------------------| (repete 3x)


(3ª vez)

E|------------------------------------------|
B|-----5~-----------------------------------|
G|-----5~-----------------------------------|
D|-5h7---7\-5-7-7\--------------------------|
A|--------------7\--------------------------|
E|------------------------------------------|


              E   E4   E
Comer tatu é bom
     D           D5(9)   ( A  A5(9) ) (2x)
Que pena que dá dor nas "costcha"
                     E   E4   E
Porque o bicho é baixinho
        D               D5(9)    ( A  A5(9) ) (2x)
E é por isso que eu prefiro as cabritas
                 E   E4   E
As cabritas têm seios
      D         D5(9)     D5(9)
E alimentam os seus descendentes

             E   E4   E
No mundo animal
    D         D5(9) ( A  A5(9) ) (2x)
"Inxeste" muita putaria
                    E   E4   E
Por exemplo, os cachorro
                     D          D5(9)   ( A  A5(9) ) (2x)
Que comem a própria mãe, sua irmã e suas tias
               E   E4   E
Eles ficam grudados
               D         D5(9)       A  A5(9)   A
De quatro se amando em plena luz do dia

(refrão)
       E5          D5            ( A4 A ) (2x)
Os animal tem uns bicho interessante
          E5          D5           ( A4 A ) (3x)
Imaginem só como é o sexo dos elefante
        E5               D5                 ( A4 A ) (2x)
E os camelos que têm as bolas em cima das costa
         E5                     D5                       ( A4 A ) (3x)
E as vaquinhas que por onde passam deixam um rastro de bosta

(riff - pós refrão)


|------------------------------------------|
|------------------------------------------|
|------------------------------------------|
|------7b8~--------------------------------|
|-2-2----------2-2-------------------------|
|-0-0----------0-0--5b6~-------------------|  (4x)


                   E
As pombas quando "avoam"
       D           A
Por incrível que pareça
             E
Ficam sobrevoando
                D                 A
Com seu cu "amirando" em nossas cabeças,
            E
Daí vem a rajada
    D            A
De sua "bazuca anal"
                 E
Já tem pomba com mira-a-laser
  D                  A
O tiro sai sempre fatal

            E
Totalmente beautiful
      D          A
As baleias do oceano
             E
Nadando com graça
           D                 A
Fugindo da caça dos homens humanos
           E
O homem é corno e cruel
          D                        A
Mata a baleia que não chifra é fiel...

(refrão 2x)
       E5          D5            ( A4 A ) (2x)
Os animal tem uns bicho interessante
          E5          D5           ( A4 A ) (3x)
Imaginem só o tamanho do pinto dos elefante
        E5               D5                 ( A4 A ) (2x)
E os camelos que têm as bolas em cima das costa
         E5                     D5                       ( A4 A ) (3x)
E as vaquinhas que por onde passam deixam um rastro de bosta

       E5          D5            ( A4 A ) (2x)
Os animal tem uns bicho interessante
          E5          D5           ( A4 A ) (3x)
Imaginem só o tamanho do pinto dos elefante
        E5               D5                 ( A4 A ) (2x)
E os camelos que têm as bolas em cima das costa
         E5                     D5                      E5   D5   A
E as vaquinhas que por onde passam deixam um rastro de bosta.

Comentários 29

  • wictor.gomes.96 wictor.gomes.96: Postado em 02/05/2014 17:23

    esse cara é um poeta!!!

  • Pedro Henrique Pedro Henrique: Postado em 17/02/2014 12:04

    Se usar pedal tbm nao fica bom?

  • Diogo Diogo: Postado em 21/12/2013 16:59

    kkkkkkkkkkkkkkkkkkkkkkkkkk

  • balao balao: Postado em 13/10/2013 23:26

    Philipe Lobo: E os "cabelos"... hoiauhoaiuhoaiuh

  • Lucas Lucas: Postado em 09/07/2013 00:00

    Huehuehueueue

  • feijaodorei feijaodorei: Postado em 16/05/2013 21:29

    O Phillipe ensina se segurando na risada kkkkk

  • Paulo Paulo: Postado em 16/04/2013 19:31

    Mamonas o/

  • vocabulario vocabulario: Postado em 16/01/2013 17:16

    não tem um ritmo mais facil jQuery1720018438459606841207_1358362646517? pf

  • vocabulario vocabulario: Postado em 16/01/2013 17:15

    oloco manow o ritmo é foda dmais

  • rodrigoguitara rodrigoguitara: Postado em 19/09/2012 22:16

    ta errada a letra

Exibindo 10 de 29 comentários Mostrar mais ver todos »
Composição: Dinho
Esse não é o compositor? Avise-nos.
Contribuição: Paulo Correções: apple , William Rizzo e mais 10 »
Exibir acordes »
publicidade
fechar