Cifra Club

Mundo Animal

Mamonas Assassinas

Cifra: Principal (violão e guitarra)
exibições 1.476.466
Tom: A
[Introdução] E5  D5  (Riff)  (3x)

  P.M.   . .   . .   . .   .
E|------------------------------------------|
B|------------------------------------------|
G|-----9-----9-----7-----7------------------|
D|-----9-----9-----7-----7------------------|
A|-----7-----7-----5-----5------------------|
E|-0-0---0-0---0-0---0-0---0----------------|

  P.M.          . .           . .
E|------------------------------------------|
B|-----5b~~---------5b~~--------------------|
G|-----5b~----------5b~~--------------------|
D|-5-7-----7\---5-7------7\---5-7\----------|
A|------------------------------------------|
E|------------------------------------------|

  P.M.   . .   . .   . .   .
E|------------------------------------------|
B|------------------------------------------|
G|-----9-----9-----7-----7------------------|
D|-----9-----9-----7-----7------------------|
A|-----7-----7-----5-----5------------------|
E|-0-0---0-0---0-0---0-0---0----------------|

  P.M.          . .           . .
E|------------------------------------------|
B|-----5b~~---------5b~~--------------------|
G|-----5b~----------5b~~--------------------|
D|-5-7-----7\---5-7------7\---5-7\----------|
A|------------------------------------------|
E|------------------------------------------|

  P.M.   . .   . .   . .   .
E|------------------------------------------|
B|------------------------------------------|
G|-----9-----9-----7-----7------------------|
D|-----9-----9-----7-----7------------------|
A|-----7-----7-----5-----5------------------|
E|-0-0---0-0---0-0---0-0---0----------------|

  P.M.          . .
E|------------------------------------------|
B|-----5b~~---------------------------------|
G|-----5b~~---------------------------------|
D|-5-7------7\--5-7-7\----------------------|
A|------------------7\----------------------|
E|------------------------------------------|


[Primeira Parte]

              E
Comer tatu é bom
     D                   A
Que pena que dá dor nas costas
                     E
Porque o bicho é baixinho
        D                          A
E é por isso que eu prefiro as cabritas
                E
As cabrita tem seios
        D                    A
Que alimentam os seus descendentes

             E
No mundo animal
  D               A
Ixéste muita putaria
                    E
Por exemplo, os cachorro
                    D
Que come a própria mãe
                 A
Sua irmã e suas tias
               E
Eles ficam grudados
               D
De quatro se amando
                 A
Em plena luz do dia


[Refrão]

   E             D
E|------------------------------------------|
B|-----10---9\-------8---7\-----------------|
G|------9---9\-------7---7\-----------------|
D|------9---9\---0-0-7-0-7\-----------------|
A|------------------------------------------|
E|-0-0----0---------------------------------|

   A
E|------------------------------------------|
B|-----3-----2-----3-----2~/----------------|
G|-----2-----2-----2-----2~/----------------|
D|-----2-----2-----2-----2~/----------------|
A|-0-0---0-0---0-0---0-0--------------------|
E|------------------------------------------|

   E             D
E|------------------------------------------|
B|-----10---9\-------8---7\-----------------|
G|------9---9\-------7---7\-----------------|
D|------9---9\---0-0-7-0-7\-----------------|
A|------------------------------------------|
E|-0-0----0---------------------------------|

   A
E|------------------------------------------|
B|-----3---2-----3---2---3---2--------------|
G|-----2---2-----2---2---2---2--------------|
D|-----2---2-----2---2---2---2--------------|
A|-0-0---0---0-0---0---0---0----------------|
E|------------------------------------------|

   E             D
E|------------------------------------------|
B|-----10---9\-------8---7\-----------------|
G|------9---9\-------7---7\-----------------|
D|------9---9\---0-0-7-0-7\-----------------|
A|------------------------------------------|
E|-0-0----0---------------------------------|

   A
E|------------------------------------------|
B|-----3-----2-----3-----2~/----------------|
G|-----2-----2-----2-----2~/----------------|
D|-----2-----2-----2-----2~/----------------|
A|-0-0---0-0---0-0---0-0--------------------|
E|------------------------------------------|

   E             D
E|------------------------------------------|
B|-----10---9\-------8---7\-----------------|
G|------9---9\-------7---7\-----------------|
D|------9---9\---0-0-7-0-7\-----------------|
A|------------------------------------------|
E|-0-0----0---------------------------------|

   A
E|------------------------------------------|
B|-----3---2-----3---2---3---2--------------|
G|-----2---2-----2---2---2---2--------------|
D|-----2---2-----2---2---2---2--------------|
A|-0-0---0---0-0---0---0---0----------------|
E|------------------------------------------|

Adaptação do Teclado - Guitarra Riff
E|---4---5---4-------4---5---4-------------------------|
B|-5---5---5---5---5---5---5---5-----------------------|
G|-----------------------------------------------------|
D|-----------------------------------------------------|
A|-----------------------------------------------------|
E|-----------------------------------------------------|

E|---4---5---4---7---5---5---4-------------------------|
B|-5---5---5---5---5---5---5---5-----------------------|
G|-----------------------------------------------------|
D|-----------------------------------------------------|
A|-----------------------------------------------------|
E|-----------------------------------------------------|

       E
Os animal
         D            A
Tem uns bicho interessante
            E
Imaginem só   como é
   D           A
O sexo dos elefante
        E
E os camelos
            D                 A
Que tem as bolas em cima das costas
         E
E as vaquinhas
              D
Que por onde passam
                     A
Deixam um rastro de bosta


[Ponte] E5 (4x)

E|------------------------------------------|
B|------------------------------------------|
G|------------------------------------------|
D|-------7b---------------------------------|
A|------------------------------------------|
E|-0--0--------0--0--6b---------------------|


[Interlúdio] E  D  A

Adaptação do Teclado - Guitarra Riff
E|---4---5---4-------4---5---4-------------------------|
B|-5---5---5---5---5---5---5---5-----------------------|
G|-----------------------------------------------------|
D|-----------------------------------------------------|
A|-----------------------------------------------------|
E|-----------------------------------------------------|

E|---4---5---4---7---5---5---4-------------------------|
B|-5---5---5---5---5---5---5---5-----------------------|
G|-----------------------------------------------------|
D|-----------------------------------------------------|
A|-----------------------------------------------------|
E|-----------------------------------------------------|


[Segunda Parte]

                   E
As pombas quando avoam
        D           A
Por incrível que pareça
             E
Ficam sobrevoando
               D
Com seu cu amirando
             A
em nossas cabeças
             E
Daí vem a rajada
    D           A
De sua bazuca anal
                  E
Já tem pomba com mira a laser
   D                 A
O tiro sai sempre fatal

            E
Totalmente beautiful
      D          A
As baleias no oceano
              E
Nadando com graça
            D
Fugindo da caça
              A
Dos homens humanos
           E
O homem é corno e cruel
          D                        A
Mata a baleia que não chifra e é fiel


[Refrão]

   E             D
E|------------------------------------------|
B|-----10---9\-------8---7\-----------------|
G|------9---9\-------7---7\-----------------|
D|------9---9\---0-0-7-0-7\-----------------|
A|------------------------------------------|
E|-0-0----0---------------------------------|

   A
E|------------------------------------------|
B|-----3-----2-----3-----2~/----------------|
G|-----2-----2-----2-----2~/----------------|
D|-----2-----2-----2-----2~/----------------|
A|-0-0---0-0---0-0---0-0--------------------|
E|------------------------------------------|

   E             D
E|------------------------------------------|
B|-----10---9\-------8---7\-----------------|
G|------9---9\-------7---7\-----------------|
D|------9---9\---0-0-7-0-7\-----------------|
A|------------------------------------------|
E|-0-0----0---------------------------------|

   A
E|------------------------------------------|
B|-----3---2-----3---2---3---2--------------|
G|-----2---2-----2---2---2---2--------------|
D|-----2---2-----2---2---2---2--------------|
A|-0-0---0---0-0---0---0---0----------------|
E|------------------------------------------|

   E             D
E|------------------------------------------|
B|-----10---9\-------8---7\-----------------|
G|------9---9\-------7---7\-----------------|
D|------9---9\---0-0-7-0-7\-----------------|
A|------------------------------------------|
E|-0-0----0---------------------------------|

   A
E|------------------------------------------|
B|-----3-----2-----3-----2~/----------------|
G|-----2-----2-----2-----2~/----------------|
D|-----2-----2-----2-----2~/----------------|
A|-0-0---0-0---0-0---0-0--------------------|
E|------------------------------------------|

   E             D
E|------------------------------------------|
B|-----10---9\-------8---7\-----------------|
G|------9---9\-------7---7\-----------------|
D|------9---9\---0-0-7-0-7\-----------------|
A|------------------------------------------|
E|-0-0----0---------------------------------|

   A
E|------------------------------------------|
B|-----3---2-----3---2---3---2--------------|
G|-----2---2-----2---2---2---2--------------|
D|-----2---2-----2---2---2---2--------------|
A|-0-0---0---0-0---0---0---0----------------|
E|------------------------------------------|

       E
Os animal
         D            A
Tem uns bicho interessante
            E
Imaginem só   como é
   D           A
O sexo dos elefantes
        E
E os camelos
            D                 A
Que tem as bolas em cima das costas
         E
E as vaquinhas
              D
Que por onde passam
                     A
Deixam um rastro de bosta

   E             D
E|------------------------------------------|
B|-----10---9\-------8---7\-----------------|
G|------9---9\-------7---7\-----------------|
D|------9---9\---0-0-7-0-7\-----------------|
A|------------------------------------------|
E|-0-0----0---------------------------------|

   A
E|------------------------------------------|
B|-----3-----2-----3-----2~/----------------|
G|-----2-----2-----2-----2~/----------------|
D|-----2-----2-----2-----2~/----------------|
A|-0-0---0-0---0-0---0-0--------------------|
E|------------------------------------------|

   E             D
E|------------------------------------------|
B|-----10---9\-------8---7\-----------------|
G|------9---9\-------7---7\-----------------|
D|------9---9\---0-0-7-0-7\-----------------|
A|------------------------------------------|
E|-0-0----0---------------------------------|

   A
E|------------------------------------------|
B|-----3-----2-----3-----2~/----------------|
G|-----2-----2-----2-----2~/----------------|
D|-----2-----2-----2-----2~/----------------|
A|-0-0---0-0---0-0---0-0--------------------|
E|------------------------------------------|

   E             D
E|------------------------------------------|
B|-----10---9\-------8---7\-----------------|
G|------9---9\-------7---7\-----------------|
D|------9---9\---0-0-7-0-7\-----------------|
A|------------------------------------------|
E|-0-0----0---------------------------------|

   A
E|------------------------------------------|
B|-----3-----2-----3-----2~/----------------|
G|-----2-----2-----2-----2~/----------------|
D|-----2-----2-----2-----2~/----------------|
A|-0-0---0-0---0-0---0-0--------------------|
E|------------------------------------------|

   E             D
E|------------------------------------------|
B|-----10---9\-------8---7\-----------------|
G|------9---9\-------7---7\-----------------|
D|------9---9\---0-0-7-0-7\-----------------|
A|------------------------------------------|
E|-0-0----0---------------------------------|

   A
E|------------------------------------------|
B|-----3-----2-----3-----2~/----------------|
G|-----2-----2-----2-----2~/----------------|
D|-----2-----2-----2-----2~/----------------|
A|-0-0---0-0---0-0---0-0--------------------|
E|------------------------------------------|

       E
Os animal
         D            A
Tem uns bicho interessante
              E
Imaginem o tamanho que é
   D              A
O pinto de um elefante
        E
E os camelos
            D                 A
Que tem as bolas em cima das costas
         E
E as vaquinhas
              D
Que por onde passam

Deixam um rastro de

   E
E|------------------------------------------|
B|-----10-----9-----10-----9~---------------|
G|------9-----9------9-----9~---------------|
D|------9-----9------9-----9~---------------|
A|------------------------------------------|
E|-0-0----0-0---0-0----0-0------------------|

  D                           A
E|------------------------------------------|
B|-----8-----7-----8-----7~-----------------|
G|-----7-----7-----7-----7~----2------------|
D|-0-0-7-0-0-7-0-0-7-0-0-7~----2------------|
A|-----------------------------0------------|
E|------------------------------------------|

 E     D        A
Bo_o_o_o_o_o_osta

0 comentários

mostrar mais comentários

Conseguiu tocar?

88 tocaram 4 ainda não

Grave um vídeo tocando Mundo Animal e mande pra gente!

00:00 / 00:00
outros vídeos desta música
repetir qualidade Automático
Outros vídeos desta música
00:00 / 00:00
Automático
Capítulos
  • Tocando a música
  • Apresentação / Equipamentos
  • Acordes introdução
  • Tocando introdução
  • Introdução - Parte 1 de 3
  • Introdução - Parte 2 de 3
  • Introdução - Parte 3 de 3
  • Introdução lento
  • Dicas primeira parte
  • Acordes primeira parte
  • Tocando primeira parte
  • Ritmo primeira parte
  • Dicas refrão
  • Acordes refrão
  • Tocando refrão
  • Refrão - Parte 1 de 4
  • Refrão - Parte 2 de 4
  • Refrão lento
  • Adaptação do teclado
  • Dicas ponte
  • Tocando ponte
  • Ensinando ponte
  • Dicas segunda parte
  • Tocando segunda parte e refrão final
  • Refrão final
  • Encerramento
OK