Cifra Club

Cabeça de Bagre II

Mamonas Assassinas

Cifra: Principal (violão e guitarra)
Tom: F
[Intro] E7

E|--------------------------------------------------------------------|
B|--------------------------------------------------------------------|
G|-------------0-----------------------------0------------------------|
D|-----0-----2-------0-----0---0-----0-----2-------0------------------|
A|---2---2-4-------2---2-4---4-----2---2-4-------2----7-7-7-7---------|
E|-0-------------0---------------0-------------0--------------6-5-0---|

[Solo]

E|-------5-9-7-5--------------------9--12-9------9-12-9--8h9p8h9p8h9--|
B|-----5---------7-4/5-4/5-------10-----------10----------------------|
G|---6-------------------------9------------9-------------------------|
D|-7------------------------------------------------------------------|
A|--------------------------------------------------------------------|
E|--------------------------------------------------------------------|

 E7
Loucura, insensatez, estado inevitável

Embalagem de iogurte inviolável

Fome, miséria e incompreensão

O Brasil é "Treta" Campeão
  A7                        G#7        A7                       G#7
Quando eu repeti a 5ª série e, tirava 'e', 'd', de vez enquando 'c'
 A7                             G#7  A7                    E7
Mais de dez minutos se passaram e:  cê, cê, cererê, cê, cê
E7
A polícia é justiça de um mundo cão

Mês de agosto sempre tem vacinação

Na política, o futuro de um país

Cala a boca, tira o dedo do meu nariz
  A7                        G#7        A7                        G#7
Quando eu repeti a 5ª série e, tirava 'e', 'd', de vez enquando 'c'
 A7                              G#7  A7
Mais de dez mil anos se passaram e:  cê, cê, cererê, cê, cê
  A7                          A4
Quando eu repeti a 5ª série e

E|------------9----------------------|
B|---------10---12-10-7--------------|
G|-------9--------------8/9--8/9-----|
D|----11-----------------------------|
A|-12--------------------------------|
E|-----------------------------------|

 A7                              A4
Mais de dez mil anos se passaram e

E|--------9-12-9---------------------|
B|-----10----------------------------|
G|---9-------------------------------|
D|-----------------------------------|
A|-----------------------------------|
E|-----------------------------------|

 F#7
Mamonas nha... nha... nha
      F7
Assassinas ( hehehehe ! )
  A7                        G#7        A7                  G#7
Quando eu repeti a 5ª série e, tirava 'e', 'd', de vez enquando C
 A7                              G#7  A7
Mais de dez mil anos se passaram e:  cê, cê, cererê, cê, cê

( Bb  A )
exibições 372.087
Acordes para:

    0 comentários

    mostrar mais comentários

    Conseguiu tocar?

    26 tocaram 1 ainda não

    Grave um vídeo tocando Cabeça de Bagre II e mande pra gente!

    00:00 / 00:00
    outros vídeos desta música
    repetir qualidade Automático
    Outros vídeos desta música
    00:00 / 00:00
    Automático
    OK