Cifra Club

Débil Metal

Mamonas Assassinas

Cifra: Principal
exibições 545.233
Tom: F#
[Intro]

E|--------------------------------------------------------------------------------------------|
B|--------------------------------------------------------------------------------------------|
G|-------------------4-3------------------------------------4-3-------------------------------|
D|-------------5-4----------5-4------------------------5-4---------5-4------------------------|
A|---------------------------------5-4*-------------------------------------------------------|
E|-----------2-----2------2-----2----------0x-0x-0x--2-----2-----2-------2---5~4*---0x-0x-0x--|

      (F5 / F#5 )          (F5 / F#5 )          (D5 / C#5 )

E|------------------------------------------------------|
B|------------------------------------------------------|
G|------------------------------------------------------|
D|------------------------------------------------------|
A|---2/4---------------2/4---------------7/6------------|
E|---0/2----2-2-2-2----0/2----2-2-2-2----5/4------------|

F5  F#5              F5   F#5               D5    C#5
Walking in the dark now there's just some cookies

F5    F#5            F5  F#5       D5  C#5
It's not for you I know  it's not yet

F5  F#5               F5  F#5         D5   C#5
I  just can't explain it melts in my mouth

 F5    F#5      F5  F#5
Dying to me now is popcorn

B5                  A5
   Can't you understand?
                          E5
   Can't you understand, boy?

                    D5
    So, shake your head

    So, shake your head, sucker!


[Solo]

E|--------------------------- |---------------------------------------------------|
B|--------------------------- |---------------------------------------------------|
G|-------------------4-3------|--3-4-4-4-3-4-6-6-6-4-6-7-7-7-6-7-9-9-9-7-9-9b10---|
D|-------------5-4----------4-|---------------------------------------------------|
A|----------------------------|---------------------------------------------------|
E|-----------2-----2------2---|---------------------------------------------------|

E|--------------------------------------------------------------------------------|
B|--------------------------------------------------------------------------------|
G|--9--7--6--7--9--6h7p6----------------------------------------------------------|
D|------------------------9--8----8--9--------------------------------------------|
A|--------------------------------------------------------------------------------|
E|--------------------------------------------------------------------------------|

E|--------------------------------------------------------------------------------|
B|-------------------------------7--8---------------------------------------------|
G|---6--7--6-----6----------------------------------------------------------------|
D|------------9-----9--8--5--4----------------------------------------------------|
A|--------------------------------------------------------------------------------|
E|--------------------------------------------------------------------------------|

E|---6----------------------------------------------------------------------------|
B|------8-7-8-7---7---------------------------------------------------------------|
G|--------------9---9-7-9-7-6-7-6-4-6-4-3-4-3---3---------------------------------|
D|--------------------------------------------5---5-4-5---------------------------|
A|--------------------------------------------------------------------------------|
E|--------------------------------------------------------------------------------|

E|-----------------9-14-------9---14-9---14-9----------------------------------------------|
B|--------------11---------11-----------------12-------------------------12-11--12-14b15---|
G|-----------11---------11-----------------------11-------------------11-------------------|
D|--------11----------------------------------------12-------------12----------------------|
A|---9-13----------------------------------------------14-------14-------------------------|
E|--------------------------------------------------------14-14----------------------------|

E|---------------------------------------------------------------------------------|
B|-----------------------7b8--7b8--7b8------7--------------------------------------|
G|---9-8---9-8---9--9--------------------9----7------------------------------------|
D|-------9-----9--------------------------------7----------------------------------|
A|---------------------------------------------------------------------------------|
E|---------------------------------------------------------------------------------|

E|-------------------------------------------------------------------------------|
B|-------------------------------------------------------------------------------|
G|---9-8---9-8---------------------2-4-6-----------------------------------------|
D|-------9-----9-7---7-----2-4-6-------------------------------------------------|
A|-------------------------------------------------------------------------------|
E|-------------------------------------------------------------------------------|

E|-------------------------------------------------------------------------------|
B|---------------5-7-7-----10----------------------------------------------------|
G|---------4-6-8-------9----9----------------------------------------------------|
D|---4-6-8-----------------------------------------------------------------------|
A|-------------------------------------------------------------------------------|
E|-------------------------------------------------------------------------------|
    
E|-9-10-9-7-9-7-6-7-6---------------------------------------------------------| 
B|-- -----------------8-11-8-7-8-7-5-7-5--------------------------------------|
G|--- -----------------------------------7-9-7-6-7-6-4-6-4-3-4-3--------------| 
D|---- ----------------------------------------------------------5-8-5-4-2-4--| 
A|----------------------------------------------------------------------------| 
E|----------------------------------------------------------------------------|

E|-------|-------------------------------------------------------------------------|
B|-------|-------------------------------------------------------------------------|
G|-------|-------------------------------------4-3----------4-3--------------------|
D|-------|------------------------------5-4------------5-4--------2----------------|
A|-10-13-|-10-9-10-9-7-9-----------------------------------------------------------|
E|-------|----------------0x-0x-0x---2-------2------2----------------0-0-----------|

E|-------------------------------------------------------------------------------|
B|-------------------------------------------------------------------------------|
G|-----------4-3-----------------------------------------------------------------|
D|-----5-4---------4-------------------------------------------------------------|
A|-------------------------------------------------------------------------------|
E|---2-----2-----2---------------------------------------------------------------|

B5                  A5
   Can't you understand?
                          E5
   Can't you understand, boy?

                     D5
    So, shake your head

    So, shake your head, sucker!

E|-------2-------3--------2-------3--------2-3-----------------------------------|
B|-----2-------2--------2--------2-------2---------------------------------------|
G|---4-------4--------4---------4-------4----------------------------------------|
D|-------------------------------------------------------------------------------|
A|-------------------------------------------------------------------------------|
E|-------------------------------------------------------------------------------|

E|-------2-------3--------2-------3--------2-3-----------------------------------|
B|-----2-------2--------2--------2-------2---------------------------------------|
G|---4-------4--------4---------4-------4----------------------------------------|
D|-------------------------------------------------------------------------------|
A|-------------------------------------------------------------------------------|
E|-------------------------------------------------------------------------------|

E|-------2-------3--------2-------3--------2-3-----------------------------------|
B|-----2-------2--------2--------2-------2---------------------------------------|
G|---4-------4--------4---------4-------4----------------------------------------|
D|-------------------------------------------------------------------------------|
A|-------------------------------------------------------------------------------|
E|-------------------------------------------------------------------------------|

E|-------2-------3--------2------------------------------------------------------|
B|-----2-------2--------2--------------------------------------------------------|
G|---4-------4--------4----------------------------------------------------------|
D|-------------------------------------------------------------------------------|
A|-------------------------------------------------------------------------------|
E|-------------------------------------------------------------------------------|
Acordes para:

    0 comentários

      mostrar mais comentários

      Conseguiu tocar?

      28tocaram1ainda não

      Grave um vídeo tocando Débil Metal e mande pra gente!

      00:00 / 00:00
      outros vídeos desta música
      repetirqualidadeautomática
      Outro vídeos desta música
        00:00 / 00:00
        automática
        OK