Cifra Club

Não Peide Aqui, Baby

Mamonas Assassinas

Cifra: Principal (violão e guitarra)
Tom: D
[Intro] C  F  G

             C      F  G   G7
E|-----------------1--3---3-3-3-3----------------------|
B|-----------------1--3---3-3-3-3----------------------|
G|----------5-5----2--4---4-4-4-4----------------------|
D|----------5-5--3-3--5---3-3-3-3--5-3-2---------------|
A|------2-3-3-3--3-3--5---5-5-5-5--------5-3-----------|
E|--3-5----------1-1--3---3-3-3-3----------------------|

                C     F              G
Não peide aqui baby (Não peide aqui baby)
         C     F       G
Não é legal! (Não é legal)
                  C               F     G
Olha só o cheiro disso mulher! (cheiro disso)
              C        F    G
Parece até bacalhau! (bacalhau)
                  C    F      G
Isto saiu do seu cu? (do seu cu)
                     C    F    G
Ninguém mandou tu bufar (tu bufar)
                 C                F    G
Agora respira sozinha (respira sozinha)
                      C    F     G
Ninguém mandou tu peidar (tu peidar)

             C      F  G   G7
E|-----------------1--3---3-3-3-3----------------------|
B|-----------------1--3---3-3-3-3----------------------|
G|----------5-5----2--4---4-4-4-4----------------------|
D|----------5-5--3-3--5---3-3-3-3--5-3-2---------------|
A|------2-3-3-3--3-3--5---5-5-5-5--------5-3-----------|
E|--3-5----------1-1--3---3-3-3-3----------------------|

             C      F  G   G7
E|-----------------1--3---3-3-3-3----------------------|
B|-----------------1--3---3-3-3-3----------------------|
G|----------5-5----2--4---4-4-4-4----------------------|
D|----------5-5--3-3--5---3-3-3-3--5-3-2---------------|
A|------2-3-3-3--3-3--5---5-5-5-5--------5-3-----------|
E|--3-5----------1-1--3---3-3-3-3----------------------|

G          G          G        G
Ahhhhhhhhh ahhhhhhhhh ahhhhhhh ahhhhhhhhhh
                C     F              G
Não peide aqui baby (Não peide aqui baby)
         C     F       G
Não é legal! (Não é legal)
                  C               F     G
Olha só o cheiro disso mulher! (cheiro disso)
              C        F    G
Parece até bacalhau! (bacalhau)
                  C    F      G
Isto saiu do seu cu? (do seu cu)
                     C    F    G
Ninguém mandou tu bufar (tu bufar)
                 C                 F            G
Agora respira sozinha desgraçada (respira sozinha)
                      C    F     G
Ninguém mandou tu peidar (tu peidar)

             C      F  G   G7
E|-----------------1--3---3-3-3-3----------------------|
B|-----------------1--3---3-3-3-3----------------------|
G|----------5-5----2--4---4-4-4-4----------------------|
D|----------5-5--3-3--5---3-3-3-3--5-3-2---------------|
A|------2-3-3-3--3-3--5---5-5-5-5--------5-3-----------|
E|--3-5----------1-1--3---3-3-3-3----------------------|

             C      F  G   G7
E|-----------------1--3---3-3-3-3----------------------|
B|-----------------1--3---3-3-3-3----------------------|
G|----------5-5----2--4---4-4-4-4----------------------|
D|----------5-5--3-3--5---3-3-3-3--5-3-2---------------|
A|------2-3-3-3--3-3--5---5-5-5-5--------5-3-----------|
E|--3-5----------1-1--3---3-3-3-3----------------------|

G          G          G        G
Ahhhhhhhhh ahhhhhhhhh ahhhhhhh ahhhhhhhhhh
exibições 221.541
Acordes para:

    0 comentários

    mostrar mais comentários

    Conseguiu tocar?

    39 tocaram 0 ainda não

    Grave um vídeo tocando Não Peide Aqui, Baby e mande pra gente!

    00:00 / 00:00
    outros vídeos desta música
    repetir qualidade Automático
    Outros vídeos desta música
    00:00 / 00:00
    Automático
    OK