Passeando

Marcelo Camelo

 Marcelo Camelo
Tom: A#
		
Essa musica quando tocada com sentimento pode se tornar um grande aprendizado.

ela esta afinada em Eb

boa sorte!


|--0--1--3--5----1-----------|--0--1--3--5----3-----1-----|
|--2-------------------3-----|--2-------------3-----3-----|
|----------------------2-----|--0-------------2-----2-----|
|-------------------3--------|----------------------3-----|
|----------------1-----------|----------------1-----------|
|----------------------------|----------------------------|




|--0--1--3--5----10-----10---|--8--7--8/10----8-----6-----|
|--2-------------10----------|--------7-------8-----8-----|
|----------------7-----------|-----8----------------------|
|-------------------10--9--8-|--7-------------8--7--------|
|--1-------------9-----------|----------------------6--5--|
|--1-------------------------|----------------------------|




|--5--6--5--4----5--6--5--4--|--3--5--3-------------------|
|----------------------------|-----------2/---6-----5-----|
|----------------------------|----------------6-----------|
|----------------------------|----------------------------|
|--4-------------3-----------|--1-------------------------|
|----------------------------|----------------------------|




|--1--3--5-------------------|--0--1--3--5---3------1-----|
|----------------6-----3-----|--2------------3------3-----|
|----------------------1-----|---------------2------2-----|
|----------------------------|----------------------3-----|
|----------------------------|--1------------1------------|
|----------------6--5--3-----|--1-------------------------|



|--0--1--3--5----10-----10---|--8--7--8/10----8-----6-----|
|--2-------------10----------|--------7-------8-----8-----|
|----------------7-----------|-----8----------------------|
|-------------------10--9--8-|--7-------------8--7--------|
|--1-------------9-----------|----------------------6--5--|
|--1-------------------------|----------------------------|




|--5--6--5--4----5--6--5--4--|--3--5--3-------------------|
|----------------------------|-----------2/---6-----5-----|
|----------------------------|----------------6-----6-----|
|----------------------------|----------------------------|
|--4-------------3-----------|--1-------------------------|
|----------------------------|----------------------------|



|----------------------------|----------------------------|
|--4--3--2-------1-----1-----|--5--4--3--2----1-----1-----|
|--5--4--3-------2-----2-----|--6--5--4--3----2-----2-----|
|----------------3--2--1--0--|----------------------------|
|----------------------------|--4--3--2--1----0-----------|
|----------------------------|-------------------4--3--2--|



|----------------------------|----------------------------|
|--5--4--3--2----1-----1-----|--5--4--3--2----1-----1-----|
|--6--5--4--3----2-----2-----|--6--5--4--3----2-----2-----|
|----------------3--2--1--0--|-----------2----3--4--5--6--|
|----------------------------|--4--5--6-------------------|
|----------------------------|----------------------------|




|--------5-----6-------------|-----------3----------------|
|--5--4-----6--------6---6-5-|------6-5--------3----------|
|--5--4----------------------|--7-------------------------|
|--7-----------6--8--7--7----|--5--6--------------3-------|
|----------------------------|-----------------5----------|
|----------------------------|-----------3--6-------------|



|--------------1-------------|--------------1-----3-------|
|--------------1-----3-------|-\5--4--3--2--1-----3-------|
|-\5--4--3--2--------2-------|-\6--5--4--3----------------|
|-\5--4--3--2----------------|----------------------------|
|--------------------0--1----|--------------------0--1----|
|--------------1--3----------|--------------1--3----------|



|--------5-----3--------1----|-----------0----------------|
|-\5--4-----6--3-----3-----3-|--1--3--4--1-----1----------|
|-\6--5-----------------2----|-----------0----------------|
|--------------3--5--4-------|--3-------------------------|
|----------------------------|--------------------3-------|
|----------------------------|--------------3-------------|


                 Eee            lá    vai     deus
                  

|--0--1--3--5----1-----------|--0--1--3--5----3-----1-----|
|--2-------------------3-----|--2-------------3-----3-----|
|----------------------2-----|----------------2-----2-----|
|-------------------3--------|----------------------3-----|
|----------------1-----------|--1-------------1-----------|
|----------------------------|--1-------------------------|

   sem...           sequer      saber         de nós


|--0--1--3--5----10-----10---|--8--7--8/10----8-----6-----|
|--2-------------10----------|--------7-------8-----8-----|
|----------------7-----------|-----8----------------------|
|-------------------10--9--8-|--7-------------8--7--------|
|--1-------------9-----------|----------------------6--5--|
|--1-------------------------|----------------------------|


                 saibamos       pois          estamos      sós


|--5--6--5--4----5--6--5--4--|--3--5--3-------------------|
|----------------------------|-----------2/---6-----5-----|
|----------------------------|----------------6-----------|
|----------------------------|----------------------------|
|--4-------------3-----------|--1-------------------------|
|----------------------------|----------------------------|
11.066 exibições

Comentários 2

  • daniel.jankoswsky daniel.jankoswsky: Postado em 04/04/2013 12:41

    cade a video aulajQuery17209684324031695724_1365088874249????????

  • daniel.jankoswsky daniel.jankoswsky: Postado em 04/04/2013 12:41

    cade a video aulajQuery17209684324031695724_1365088874247????????

Composição: Marcelo Camelo
Esse não é o compositor? Avise-nos.
Contribuição: Cleberson
Exibir acordes »
publicidade
fechar