Tá Bom

Marcelo Camelo

 Marcelo Camelo
Tom: A
		
Música é tocada 1/2 tom abaixo. Para tocar com a afinação normal clique em -1/2 tom.  

Intro: tocada 4 vezes

eb--5------7------4-------2------|
Bb|----5------7------6-------2----|
Gb|------6------7------4-------2--|
Db|-------------------------------|
Ab|-------------------------------|
Eb|-------------------------------|

      
 F#m7   E7/G#   C#7         F#m7    
Senta aqui que hoje eu quero te falar
 F#7  Bm7        E7(9)   Bm7         E7(9)
Não tem mistério, não, é só teu coração
             F#m7 E7/G#     C#7         F#m7    
Que não te deixa amar, você precisa reagir.
 F#7  Bm7          E7(9)
Não se entregar assim...
  Bm7           E7(9)
como quem nada quer?
          C#          
Não há mulher, irmão, que goste desta vida
 F#m7      C#                      A    
Ela não quer viver as coisas por você


eb|-------------------------------------------------------------------|
Bb|-------4--------4-------8-9-8--6-7-6--4-5-4----------10-9-8-6h8-6--|
Gb|----5----5---5---5--------------------------------6----------------|
Db|-6---------6------------------------------------7----7-------------|
Ab|-------------------------------------------------------------------|
Eb|-------------------------------------------------------------------|



eb|------------------------------------------------------|
Bb|-----------10-9-8-6h8-6-----------------------------6-|
Gb|-----6----------------------5--7s9--5--7s9--5-7-9-----|
Db|--7----7----------------------------------------------|
Ab|------------------------------------------------------|
Eb|------------------------------------------------------|


        E        Bm7  A  E
Me diz, cadê você aí?
   Bm7    A   E7/G#   C#7     F#m7
E aí não há sequer um par pra dividir

[Intro 2x]

 F#m7   E7/G#   C#7         F#m7    
Senta aqui, espera que eu não terminei
  F#7  Bm7        E7(9)   Bm7         E7(9)
Por onde você foi que eu não te vejo mais?
             F#m7   E7/G#   C#7         F#m7    
Não há ninguém capaz de ser isso que você quer
F#7  Bm7        E7(9)   Bm7         E7(9)
Vencer a luta vã e ser o campeão!
          C#          
Pois se é no não que se descobre de verdade
  F#m7      C#                      A 
O que te sobra além das coisas casuais
 A        E              Bm7 A E
Me diz se assim está em paz
    Bm7    A   E7/G# C#7     F#m7
Achando que sofrer é amar demais

[Intro 2x]

F#m7   E7/G#   C#7    F#m7
7.234 exibições

Comentários 0

Composição: Marcelo Camelo
Esse não é o compositor? Avise-nos.
Contribuição: IZZY(K)
Consegui tocarAinda não conseguiram tocar essa música. Seja o primeiro!
    Não consegui tocar
    Exibir acordes »
    publicidade
    fechar