Caminho da Luz

Mato Seco

 Mato Seco Compositor: Rodrigo Piccolo / Thiago Rezende
Tom: B
		
Intro:

E|--------------------------------------------------|
B|--------------------------------------------------|
G|--------------------------------------------------|
D|-------3----------------3-------------------------|
A|-0-3-5---5--3-5---0-3-5---5--3-5---0-3-5-3-0---0--|
E|---------------------------------------------3----|


C#m 
Nunca encontrará, na escuridão
B  
O caminho da Luz
Suas palavras tem que colocá-las em ação  Refrao

Por que Deus não escolhe os capacitados
Ele capacita os escolhidos
Por que Ele escolhe os pobres da terra
Para serem ricos

De poesia e amor, de sabedoria do Senhor
HalleluJah
O que você quer, tem que saber aonde procurar

Refrão:
Pois não basta dizer, falar
Tem que praticar
Toda palavra faz mesmo diferença, se virar ação

E você não achará Luz na escuridão
Não vai enxergar o caminho
E vai perder a direção, por andar na escuridão

Refrão 2x:
B                 E
Mas se você erra e cai
C#m                        F#
E tem a humildade pra se levantar
D#m                      G#m
Saiba que Jah vai te perdoar
               C#6
A vida como a terra, renovada
F#
Depois que a chuva cai

C#m 
Nunca encontrará, na escuridão
B  
O caminho da Luz
Suas palavras tem que colocá-las em ação

E|-------------------|----------------------|
B|-------------------|----------------------|
G|-------------------|----------------------|
D|-------------------|---3----5------3---5--|
A|-----3--------3----|-5---5------5----5----|
E|--5----5---5----5--|----------------------|

21.287 exibições

Comentários 0

Composição: Sabe quem é o compositor? Envie pra gente. Contribuição: Caioooo Correções: gabrilgaiamen »
Exibir acordes »
publicidade
fechar